Порт (812) - Ты со мной, аккорды

Прокрутка
Тональность
Шрифт
100
Вступление:
        C             F            Am            G       
E||-------------|------------|------------|--------------|
B||-------------|------------|-------1----|--------------|
G||--------0----|-------0----|------------|--------------| x2
D||-----2-----2-|----3-----3-|----2-----2-|-------2------|  
A||--3----------|-3----------|-0----------|----5-----5---|
E||-------------|------------|------------|-3------------|

        C             F            Am            G
E||-------------|------------|------------|--------------|
B||-------------|------------|-------1----|--------------|
G||--------0----|-------0----|------------|--------------|
D||-----2-----2-|----3-----3-|----2-----2-|-------2------|
A||--3----------|-3----------|-0----------|----5-----5---|
E||-------------|------------|------------|-3------------|
    Моя       свобода это    блеф и      заблужденье
    Она        рассеется как  дым и снова  пробужденье
    День прожи - тый без тебя  пуст  и      бесполезен
    Мир    пос - тели пустой       холо  - ден и тесен
 
   F                       G
E||-----------------------|-----------------------|
B||-----------------------|-----------------------|
G||-----------------------|--------------0--------|
D||-------0----------0----|-------2---------3--2--|
A||----3-----3----3-----3-|----5-----5------------|
E||-1-----------1---------|-3---------------------|
    И  только   каждую     ночь  ты   приходишь ко мне

   C                       Am
E||-----------------------|-----------------------|
H||-------1------3---1----|-------------0---------|
G||----------0----------0-|------2---------2------|
D||-----------------------|---------2---------2---|
A||-3---------------------|-0---------------------|
E||-----------------------|-----------------------|
        В мои цветные      сны в них улыбаешься ты  
     
E||-----------------------|----------------------|
H||-----------------------|----------------------|
G||-----------------------|----------------------|
D||-------0----------0----|-------2--------3-3--2|     
A||----3-----3----3-----3-|----5-----5-----------|
E||-1-----------1---------|-3-----------3--------|
  Я снова твой герой                   и ты со мной

          P.M.P.M.P.M.P.M.
Проигрыш: C | F | Am | G 

C             Am              G
В последний раз небо твоих глаз 
                 F            G
Плачет болью я расплатиться кровью
C                        Am            A# 
Готов за все что сделал я но нет наказания
                  G
В этом мире чтобы вернуть тебя
C              Am          G 
Дороже мне твои недостаткиии
               F  
Чем моя душа ты лучшая половинааа
Am   G    Am    F      G
Я знаю все в прошлом но
               F           C Am F G      
Возращаюсь домой где ты со мной  
          C Am F G
Где ты со мной  

Проигрыш: C F Am G }x4 F

C             Am          G
Я не хочу поверь я не могу
                 F            G
Просто другом быть для тебя ведь стука
C                        Am        A# 
Нету в сердце моем когда мы не вдвоем
                  G
Когда я один нагроможденье льдин
C              Am    G 
Вокруг меня и это игра
               F  
Кидая за борт и топит меня
Am   G    Am    F     G
Я знаю все в прошлом но
               F           C Am F G      
Возвращаюсь домой где со мной
          C Am F G
Где ты со мной
 
 
Свернуть Распечатать

Видео