После 11 - Крылья, аккорды

Прокрутка
Тональность
Шрифт
100
E|-----------------0-|-----------------2-|------------------0-|------------------2-|
B|-----------------0-|-----------------3-|------------------1-|------------------0-|
G|-----------------0-|-----------------4-|------------------2-|------------------2-|
D|-----------------2-|-----------------0-|------------------2-|------------------1-|
A|----------0--3--2--|---2--3--2--0--2---|---2--3--2--0---0---|---0--2--0-------2--|
E|---2--3---------0--|-------------------|--------------------|--------------3-----|

E|-----------------0-|-----------------2-|------------------0-|------------------2-|
B|-----------------0-|-----------------3-|------------------1-|------------------0-|
G|-----------------0-|-----------------4-|------------------2-|------------------2-|
D|-----------------2-|----0------------0-|------------------2-|------------------1-|
A|----------0--3--2--|-------3--2--0--2--|---2--3--2--0---0---|---0--2--0-------2--|
E|---2--3---------0--|-------------------|--------------------|--------------3-----|

Em                Am          C                  B7
Смысловая засада, рифма наградой раз в полтора часа,
Em                Am          C                  B7
Недосказанность фразы в липком экстазе, крик на два голоса,
Em                Am          C               B7
Полилась на бумагу темная брага выдержкой 20 лет,
Em                Am          C                  B7
Мы не вместе, но рядом, значит так надо, я выключаю свет…
C               B7    Em
Твой силуэт, как иллюзия.

Em                Am          C                  B7
Оставаться надолго, надо не надо, споров не избежать,
Em                Am          C                  B7
Мне осталось немного, что будет дальше, к счастью не мне решать.
Em                Am          C                  B7
Скукой дышит в затылок звон ложек-вилок, смех сквозь презрение,
C               B7    Em
Мне б побыть настоящим было бы счастье пусть лишь мгновение.

Em                             Bm
Я не знаю, но чувствую, я не вижу, но верую,
Am 
Если вырастут крылья за спиной –
G  B7
Я хочу чтобы были белыми…
Em                             Bm
Я не знаю, но чувствую, я не вижу, но верую,
Am
Если вырастут крылья за спиной –
Em                             Bm
Я хочу чтобы были белыми…они.

Em                Am          C                  B7
Крепко сжатые руки, взят на поруки, новый крутой маршрут,
Em                Am          C                  B7
Кто-то хочет сразиться, кто-то боится, третьего дома ждут.
Em                Am          C                  B7
Стержень - быстрые спицы, жизнь колесницей движется к пропасти,
C               B7    Em
Распахни свое сердце, если ты хочешь душу свою спасти.

Em                             Bm
Я не знаю, но чувствую, я не вижу, но верую,
Am
Если вырастут крылья за спиной –
Em                             Bm
Я хочу чтобы были белыми…
Em                             Bm
Я не знаю, но чувствую, я не вижу, но верую,
Am
Если вырастут крылья за спиной –
Em                             Bm
Я хочу чтобы были белыми…
 
 

Видео