ПОСТная херня - Говно для модников, аккорды

Прокрутка
Тональность
Шрифт
100
Вся песня: D5 E5 C5 A5

Куплет: 
 D5     E5      С5      A5            D5     E5      С5      A5           D5     E5      С5      A5           D5     E5      С5      A5
e|----------------------------------||----------------------------------||----------------------------------||----------------------------------|
B|----------------------------------||----------------------------------||----------------------------------||----------------------------------|
G|--------------9-------------------||----------------9-----------------||----------------9-----------------||----------------9-----------------|
D|7------9--------------9-----7-----||7------9---------------7-----9----||7------9---------------7----9-----||7------9---------------7----9-----|
A|----------------------------------||----------------------------------||----------------------------------||----------------------------------|
E|----------------------------------||----------------------------------||----------------------------------||----------------------------------|


 D5              E5
Эти песни пишутся по пол часа
 C5                     A5
Бас гитара, драм машина и побольше ревёрба
 D5              E5
Эти тексты пишутся за 5 минут
 C5                     A5
Иногда мы даже не рифмуем строки
 D5              E5
Эта музыка воруется у всех подряд
 C5                     A5
Нам вообще насрать, зашибись, ребят
 D5              E5
Мы не хер знает кто, а люди искусства
 C5                     A5
Нас слушают дети и плохие журналисты

Припев:

 D5         E5         С5          A5           D5         E5         С5          A5         
e|--------------------------------------------||----------------------------------------------|
B|--------------------------------------------||----------------------------------------------|
G|------9----------7----------9---------------||------9----------7----------9-----10-10--9--7-|
D|7-7-9-----7-7-9------7-7-9-------7-7-9--10--||7-7-9-----7-7-9------7-7-9--------------------|
A|--------------------------------------------||----------------------------------------------|
E|--------------------------------------------||----------------------------------------------|  x2

 D5              E5
Мы играем говно для модников
 C5                     A5
И собираем бабло со школьников
 D5              E5
На концертах не слышно нихера
 C5                     A5
Мы профессионалы, новая волна

D5  E5  C5  A5 x2

Второй куплет: 

Куплет: 
 D5     E5      С5      A5            D5     E5      С5      A5           D5     E5      С5      A5           D5     E5      С5      A5
e|----------------------------------||----------------------------------||----------------------------------||----------------------------------|
B|----------------------------------||----------------------------------||----------------------------------||----------------------------------|
G|--------------9-------------------||----------------9------10----9----||----------------9-----------------||----------------9------10----9----|
D|7------9--------------7-----9-----||7------9--------------------------||7------9---------------7----9-----||7------9--------------------------|
A|----------------------------------||----------------------------------||----------------------------------||----------------------------------|
E|----------------------------------||----------------------------------||----------------------------------||----------------------------------|


 D5                E5
Обложку для альбома в Пеинте нахерачил
 C5                   A5
Это постмодернизм, а не халтура
 D5                E5
Ирония, стёб, мы вообще-то шутим
 C5                   A5
Мы вообще-то шутим, несите нам ваши деньги
 D5                E5
Стараться, творить, не, не слышал
 C5                   A5
Могу даже не дописывать куплет
 
D5  E5  C5  A5

Припев:

 D5         E5         С5          A5             D5         E5         С5         A5             D5         E5         С5         A5           D5         E5         С5         A5      
e|----------------------------------------------||----------------------------------------------||--------------------------------------------||----------------------------------------------|
B|----------------------------------------------||----------------------------------------------||--------------------------------------------||----------------------------------------------|
G|------9----------7----------9-----10-10--9--7-||------9----------7----------9-----10-10--9--7-||------9----------7----------9---------------||------9----------7----------9-----10-10--9--7-|
D|7-7-9-----7-7-9------7-7-9--------------------||7-7-9-------7-7-9------7-7-9------------------||7-7-9-----7-7-9------7-7-9-------7-7-9--10--||7-7-9-----7-7-9------7-7-9--------------------|
A|----------------------------------------------||----------------------------------------------||--------------------------------------------||----------------------------------------------|
E|----------------------------------------------||----------------------------------------------||--------------------------------------------||----------------------------------------------|

 D5              E5
Мы играем говно для модников
 C5                     A5
И собираем бабло со школьников
 D5              E5
На концертах не слышно нихера
 C5                     A5
Мы профессионалы, новая волна  x2

D5  E5  C5  A5 x2

Outro:
 D5         E5         С5          A5           D5         E5         С5         A5           
e|-------------------------------------------||--------------------------------------------------|
B|-------------------------------------------||--------------------------------------------------|
G|------9----------7----------9--------------||------9----------7----------9-----10-10--9--7-----|
D|7-7-9-----7-7-9------7-7-9-------7-7-9--10-||7-7-9-------7-7-9------7-7-9--------------------7-|
A|-------------------------------------------||--------------------------------------------------|
E|-------------------------------------------||--------------------------------------------------|
 
 
Свернуть Распечатать

Видео