Прикольные песни - Цыганочка, аккорды

Прокрутка
Тональность
Шрифт
100
Основная тема:
E|-------5-7-5-|-------5-7-5-|-------4-5-4-|
B|-----6-------|-----5-------|-----3-------|
G|---7---------|---5---------|---4---------|
D|-0-----------|-------------|-------------|
A|-------------|-0-----------|-------------|
E|-------------|-------------|-0-----------|

E|-------5-7-5----|-------5-7-5-|-------5-7-5-|
B|-----5------5---|-----6-------|-----5-------|
G|---5---------5--|---7---------|---5---------|
D|----------------|-0-----------|-------------|
A|-0--------------|-------------|-0-----------|
E|----------------|-------------|-------------|

E|-------4----8-7-5-4-5-|
B|-----3----------------|
G|---4------------------|
D|----------------------|
A|----------------------|
E|-0--------------------|
 
 

Видео