Пропаганда - Обнять, аккорды

Прокрутка
Тональность
Шрифт
100
 Am            F
[E----------0-----------0-----------1------------1----
B-------1---1-------1------------1--1---------1------
G-----2-----------2-------------2------------2-------
D---2-----------2-------------3------------3---------
A-0------------0-------------------------------------
E---------------------------1------------1-----------

    G           C          D
E----------3------------3------------0-----------------2----
B-------0---0--------0------------1---1------1--------------
G-----0------------0------------0--------------------2----2-
D---0------------0------------2------------2---2---0--------
A---------------------------3------------3------------------
E-3------------3--------------------------------------------]

 Am
Ты ничего не говорил,
 F
Глаза искал глазами!
 G
A мне б одной хватило сил,
 C             D
Измерить миг часами.
Ты ничего не обещал,
Но говорило тело,
И ночь ждала,
И день молчал
И я тебя хотела.
              Am
Обнять, обнять
         F
Верить неистово
            G
Верь мне все Искренне
 C           D
Вздохи как выстрелы
Понят, понять
Жарко и холодно,
Тени по потолку
Ты мой единственный
Рука к руке, как по реке
Забрать тебя и спрятать,
Пусть прорастают на заре
Огни любви внезапной
Люби меня, бери меня
Поют душа и тело,
И ночь звала, и день кричал
И я тебя хотела.