Психея - От А(да) до (ра)Я, аккорды

Прокрутка
Тональность
Шрифт
100
Аккорды немного не те, но табы похожи. 
Вступление( 2 раза):
E|----------------------------|----------------2-----------232-|
H|----------------------------|------0--------0---0---3---------|
G|----------------------------|------0---------------------------|
A|----6----6-5---------------|----------------------------------|
D|-3----3---------6---3/43--|-2-------2----------------------|
E|-------------4---------------|---------------------------------|
Em   Am  Em        B       Am
Я разруша--ю  привычные связи 
Не успева--я   оглянуться на сто сантиметров назад
      
Новая форма
E|----------------------------------------------------|
H|-7-----7-7-7-5------5----5----5-5-5------------|
G|----------------------------------------------------|                    
Привычная
E|---------------------------------------------------|
H|-1-----1-1-1-0------0-----0---0-0-0-0--------|
G|--------------------------------------------------|
 на первый взгляд 
E|-3--3--3----3--3--3---2--2--2----7------------|
H|----------------------------------------7-0-------|
G|----------------------------------------------------|
 Em 
Все вроде бы в норме 
                Am   B7   
Получен правильный импульс 
F
И в ад 
Em         
Рад я действительно рад 
C      B7           Em 
Яд кисло-сладкий на первый вкус 
 Em           F
Как укус – не боюсь 
Дар очень редкий дар
Разжигать из искры пожар 
Just a star… 
 
 

Видео