Алла Пугачева - Мне нравится, аккорды новинка

Прокрутка
Тональность
Шрифт
100
Intro:
E|-------1--------------1--------------1--------------1-----|
B|-----3---3----------3---3----------3---3----------3---3---|
G|---2-------2------2-------2------2-------2------2-------2-|
D|-0-----------------------------0--------------------------|
A|----------------0-----------------------------0-----------|
E|----------------------------------------------------------|
   Dm             Dm/A           Dm             Dm/A

      Dm           Gm            A7 (x02223)  A7/E
Мне нравится, что Вы больны не мной,
      Dm          Gm           A7   
Мне нравится, что я больна не Вами,
Gm                C         F
   Что никогда тяжёлый шар земной
A#                 A#/F     A7 A7/E
   Не уплывёт под нашими ногами
                                E|-------|
                                B|-------|
                                G|-----2-|
                                D|---2---|
                                A|-0-----|
                                E|-------|
      Dm           Gm             A
Мне нравится, что можно быть смешной,

E|-------------|
B|-----3-----3-|
G|---3-----3---|
D|-------5-----|
A|-------------|
E|-3-----------|
Gm              C               F        
   Распущенной, и не играть словами,
                             E|-------3-----3-----|
                             B|------3--3-----3---|
                             G|-----3-----3-----3-|
                             D|----5--------------|
                             A|-------------------|
                             E|-3-----------------|
Am                 D           Gm
   И не краснеть удушливой волной,

    E|-------3-----
    B|-----3---3---
    G|---3-------3-
    D|-5-----------
    A|-------------
    E|-------------
      Gm              A7     A7/E
Слегка соприкоснувшись рукавами

F            F               Cm   
  Спасибо Вам и сердцем и рукой
                           E|--------------3-----3-----|
                           B|-----3-------3--3-----3---|
                           G|---2--------3-----3-----3-|
                           D|-0---------5--------------|
                           A|--------------------------|
                           E|--------3-----------------|
    Cm/G                     D       Gm         
За то, что Вы меня, не зная сами,      так любите...

E|-------1-----1-----|
B|-----3---3-----3---|
G|---3-------3-----3-|
D|-------------------|
A|-1-----------------|
E|-------------------|
  A#                              
       За мой ночной покой,

E|-------1-----1-----|
B|-----3---3-----3---|
G|---3-------3-----3-|
D|-------------------|
A|-1-----------------|
E|-------------------|
  D#                                                         
    За редкость встреч закатными часами,

E|-------3-----3-----3-----|
B|------3--3-----3-----3---|
G|-----3-----3-----3-----3-|
D|----5--------------------|
A|-------------------------|
E|-3-----------------------|
  Gm                                              
   За наше негулянье под луной,

     A                      A7/E
За солнце, не у нас над головами...

    Dm             Gm        A7   A7/E
За то, что Вы больны, увы, не мной,
    Dm          Gm            A7 Dm
За то, что я, увы, больна не Вами...

Комментарий автора:

Музыка Микаэла Таривердиева
Слова Марины Цветаевой

Аккорды:
A7 x02223
Gm 355333
A# x13331 (с барре на 1м ладу)
D# xx1343 (барре остаётся после A#, тяжело, я знаю)
Перебор где не указан такой же как в intro
Можно транспонировать аккорды на тон выше и играть с капо на 3м ладу, аккорды чуть проще, но звучит местами гораздо хуже.
 
 
Свернуть Распечатать

Видео