Queens Of The Stone Age - Auto Pilot, аккорды

Прокрутка
Тональность
Шрифт
100
Tabbed By: PeaRce

Simple song structure. Kick-ass band and a great song to play along with
Tuning EADG..

VERSE
G------------------------------------|
D------------------------------------|
A--------------------5--55--77777----|
E--7--71---1/7--7-------------------|

CHORUS
G----------------------------------------------------------------|
D----------------------------------------------------------------|
A---2-2-2-2-2--2-2-----------------------------------------------|
E-------------------3-3-3-3-3--3-3-4-4-4-4-4--4-4-0-0-0-0-0--0-0-|