Queens Of The Stone Age - In The Fade, аккорды

Прокрутка
Тональность
Шрифт
100
Queens of the Stone Age
Rated R
 
In the Fade  (bass:nick oliveri)
tabbed by brian ...  lovesong@mediaone.net
 
Don't complain if some minor things are wrong, reason that you are looking at this is because you didn't feel like learning it on your own, email me with any questions
 

G-------------------------------------------------------
D-------------------------------------------------------
A--777-----------7---------------------7----------------
E-------79-79------9---77-9---------------9-79-79-------
 
G---------------------------
D---------------------------
A---------7777777--4444444--
E-5555555-------------------
 
G-------------------
D-------------------
A----7-4-0-4--77-44-
E-------------------
 
G-------------------------------------------------------
D-------------------------------------------------------
A-------------------------------------------------------
E--9999999999999999-7-999999-------------------------
 

once again many fills in just improvise like i do with them makes it more fun
these are the main riffs good luck its not tough at all once u get the rythem