Queens Of The Stone Age - Monsters In The Parasol, аккорды

Прокрутка
Тональность
Шрифт
100
Queens of the Stone Age
Rated R
 
Monsters In the Parasol (bass:nick oliveri)
tabbed by brian ...  lovesong@mediaone.net
 
Don't complain if some minor things are wrong, reason that you are looking at this
is because you didn't feel like learning it on your own, email me with any questions
 
E---------------------------------------
B---------------------------------------
F#------------1-------------------------
C#-88888888------8888888888----66666666-
 
      or   
E------------------------------------------
B------------------------------------------
F#--333333333333--1---33333333-------111111
C#-----------------------------------------
 
E---------------------------------------
B---3-2-1---1-2-3-2---------------------
F#--------3-----------------------------
C#--------------------------------------

E--------------------------------------------------
B--44444444--11111111--66666666----7777777777777---
F#-------------------------------------------------
C#-------------------------------------------------
 
       or
E-------------------------------------------------
B-------------------------------------------------
F#---999999999---6666666---1111111-12121212121212-
C#------------------------------------------------
 
you've got a monster in your parasol...  brackets means u can play that instead
E--------------------------------------
B---33333----11-11-11-11-11-999999-----
F#-----------(3333333333333(111111)---- 
C#-------------------------------------
  
E---------------------------------------
B---3-2-1---1-2-3-2-3---------------------------------
F#--------3------------------------------
C#-------------------------------------- end
 

theres some fill ins which u can use or not, u can figure it out
anyway great song good luck with it there are various fill ins be creative