RadioHead - I Will, аккорды

Прокрутка
Тональность
Шрифт
100
Fig А:
Repeat x 7  
 e|----------------------------------------------------5-| 
 B|------------------6---6---6---6-----6-----------5---5-| 
 G|----6-------6-----7---7---7---7-----7-----7-6--(6)----| 
 D|----7-------7-----7---7---7---7-----7-----7-7---------| 
 A|----7---------7-5---5---5-----------------------------| 
 E|--5---(5)-5-----------------6---6-6---6-5-----5---5---| 
 
Fig В: (Kind of a transistion into the next part)  
 e|----------------| 
 B|----------------| 
 G|----6-----6---6-| 
 D|----7-----7---7-| 
 A|----------------| 
 E|--5---5-5---5---| 
 
Fig С: (Key Change)  
 e|---------------------------------------| 
 B|----------3----------------------------| 
 G|----7-----3------6-----2-----4-----6---| 
 D|----8------------7-7---3-----5-5---7---| 
 A|---------------------------------------| 
 E|--6---6-3----3-5---5-1---1-3---3-5---5-| 
 
 e|---------------------------------------| 
 B|----------3------5---------------------| 
 G|----7-----3--------6---2-----4-----6---| 
 D|----8------------------3-----5-5---7---| 
 A|---------------------------------------| 
 E|--6---6-3----3-5---5-1---1-3---3-5---5-| 
 
 e|------------------------------------------------------------| 
 B|----------3--------------------3-----------3---5-----5----6-| 
 G|----7-----3------6-----2-----4-----2-----4-----6-----6----7-| 
 D|----8------------7-7---3-----5-----3-3---5-----7-----7----7-| 
 A|----------------------------------------------------------5-| 
 E|--6---6-3----3-5---5-1---1-3---3-1---1-3---3-5---5-5---5----|
 
 

Видео