RadioHead - No Surprises, аккорды

Прокрутка
Тональность
Шрифт
100
Intro: 
e|-2-------2-------2-------------0--2-------2-------2-------------0----------| 
B|-----3-------3-------3-------3--------3-------3-------3-------3------------| 
G|---2---2---2---2---2---2-0-3--------2---2---2---2---2---2-0-3--------------| 
D|---------------------------------------------------------------------------| 
A|---------------------------------------------------------------------------| 
E|---------------------------------------------------------------------------| 
 
   Fsus 2               Bbm Bb? Bbm6     
e|-2-------2-------2-------------0---| 
B|-----3-------3-------3-------3-----| 
G|---2---2---2---2---2---2-0-3-------| 
D|-----------------------------------| 
A|-----------------------------------| 
E|-----------------------------------| 
 
   Fsus 2               Bbm Bb? Bbm6     
e|-2-------2-------2-------------0---| 
B|-----3-------3-------3-------3-----| 
G|---2---2---2---2---2---2-0-3-------| 
D|-----------------------------------| 
A|-----------------------------------| 
E|-----------------------------------| 
 
Verse: 
  Fsus 2                           Dmaddb6 
e|-2-------2-------2-------2-------2-------2-------2-------2-------| 
B|-----3-------3-------3-------3-------3-------3-------3-------3---| 
G|---2---2---2---2---2---2---2---2---0---0---0---0---0---0---0---0-| 
D|-----------------------------------------------------------------| 
A|-----------------------------------------------------------------| 
E|-----------------------------------------------------------------| 
 
  Gm               C    Csus 4 C  
e|-3-------3-------------------------------------------------------| 
B|---0-3-0---0-3-0-3-2---------------------------------------------| 
G|---------------------2-------2--0--------------------------------| 
D|-----------------------2-2h4-------------------------------------| 
A|-----------------------------------------------------------------| 
E|-----------------------------------------------------------------| 
 
   Fsus 2               Bbm Bb? Bbm6     
e|-2-------2-------2-------------0---| 
B|-----3-------3-------3-------3-----| 
G|---2---2---2---2---2---2-0-3-------| 
D|-----------------------------------| 
A|-----------------------------------| 
E|-----------------------------------| 
 
   Fsus 2               Bbm Bb? Bbm6     
e|-2-------2-------2-------------0---| 
B|-----3-------3-------3-------3-----| 
G|---2---2---2---2---2---2-0-3-------| 
D|-----------------------------------| 
A|-----------------------------------| 
E|-----------------------------------| 
 
Chorus: 
  Fsus 2                           Dmaddb6 
e|-2-------2-------2-------2-------2-------2-------2-------2-------| 
B|-----3-------3-------3-------3-------3-------3-------3-------3---| 
G|---2---2---2---2---2---2---2---2---0---0---0---0---0---0---0---0-| 
D|-----------------------------------------------------------------| 
A|-----------------------------------------------------------------| 
E|-----------------------------------------------------------------| 
 
  Gm       Gm7    C  Csus 4  C    Gm       Gm7   C    Csus 4  C  
e|------------------------------------------------------------| 
B|-----------------------------------------------------3---2--| 
G|-4-2-2-0-0-2-2-0-------0-2-0---4-2-2-0-0-2-2-0--------------| 
D|-----------4-4-2-2-2h4-------0-----------4-4-2-2-2-2---2---2| 
A|------------------------------------------------------------| 
E|------------------------------------------------------------| 
 
  Gm       Gm7   C    Csus 4  C  
e|------------------------------------------------------------| 
B|------------------------------------------------------------| 
G|-4-2-2-0-0-2-2-0-------0-2-0--------------------------------| 
D|-----------4-4-2-2-2h4-------0------------------------------| 
A|------------------------------------------------------------| 
E|------------------------------------------------------------| 
 
e|-2-------2-------2-------------0--2-------2-------2-------------0- 
B|-----3-------3-------3-------3--------3-------3-------3-------3--- 
G|---2---2---2---2---2---2-0-3--------2---2---2---2---2---2-0-3----- 
D|------------------------------------------------------------------ 
A|------------------------------------------------------------------ 
E|------------------------------------------------------------------ 
 
e|-2-------2-------2-------2-------2-------2-------2-------2-------| 
B|-----3-------3-------3-------3-------3-------3-------3-------3---| 
G|---2---2---2---2---2---2---2---2---0---0---0---0---0---0---0---0-| 
D|-----------------------------------------------------------------| 
A|-----------------------------------------------------------------| 
E|-----------------------------------------------------------------| 
 
   Gm    Gm7    C  Csus 4  C    Gm       Gm7   C    Csus 4  C  
e|------------------------------------------------------------| 
B|-----------------------------------------------------3---2--| 
G|-4-2-2-0-0-2-2-0-------0-2-0---4-2-2-0-0-2-2-0--------------| 
D|-----------4-4-2-2-2h4-------0-----------4-4-2-2-2-2---2---2| 
A|------------------------------------------------------------| 
E|------------------------------------------------------------| 
 
  Gm       Gm7   C    Csus 4  C  
e|------------------------------------------------------------| 
B|------------------------------------------------------------| 
G|-4-2-2-0-0-2-2-0-------0-2-0--------------------------------| 
D|-----------4-4-2-2-2h4-------0------------------------------| 
A|------------------------------------------------------------| 
E|------------------------------------------------------------| 
 
   Fsus 2               Bbm Bb? Bbm6     
e|-2-------2-------2-------------0--- 
B|-----3-------3-------3-------3----- 
G|---2---2---2---2---2---2-0-3------- 
D|----------------------------------- 
A|----------------------------------- 
E|----------------------------------- 
 
Okay heres the tough bit during the bridge theres 2 guitars 
playing different melody lines at the same time.
First i'm going to tab out guitar 1's part then 
i'm going to tab out guitar 2's part. 
 
Bridge:
for guitar 1 
 
e|--------------------------5-3-------------------------------5p3| 
B|2---2---3p2-------------3-----3---2-------3p2-------------3----| 
G|------------2---2-0-0-3---------3---2---2-----2---2-0-0-3------| 
D|--2---2-------2-----------------------2---------2--------------| 
A|---------------------------------------------------------------| 
E|---------------------------------------------------------------| 
        Gm  
e|-----------------------------0--------------------------| 
B|-3-------------3-0-------1-3---3------------------------| 
G|---3-------0-------0-2-3--------------------------------| 
D|-------2-2---2------------------------------------------| 
A|--------------------------------------------------------| 
E|--------------------------------------------------------| 
 
for guitar 2 
 
e|-----------------------0-1-0---------------------3---0-1-0-| 
B|-2-------------------3-------3---2---------2-----3-3-------| 
G|-2-2-------2-2-0---3-----------3-2-2-----2---2---3---------| 
D|-2---2---2-2-2-0-----------------2---2---2-----------------| 
A|-0-----0-0-----------------------0-----0-0-----------------| 
E|-----------------3-----------------------------3-----------| 
 
e|---0----------------------------------------------------| 
B|-3-0---0-------------3---3---3---3----------------------| 
G|---0-------0---0-2-3---2---0---3------------------------| 
D|---2---------4------------------------------------------| 
A|---2-----2----------------------------------------------| 
E|---0----------------------------------------------------| 
 
 Fsus 2                           Dmaddb6 
e|-2-------2-------2-------2-------2-------2-------2-------2-------| 
B|-----3-------3-------3-------3-------3-------3-------3-------3---| 
G|---2---2---2---2---2---2---2---2---0---0---0---0---0---0---0---0-| 
D|-----------------------------------------------------------------| 
A|-----------------------------------------------------------------| 
E|-----------------------------------------------------------------| 
 
  Gm     Gm7    C  Csus 4  C    Gm       Gm7   C    Csus 4  C  
e|------------------------------------------------------------| 
B|-----------------------------------------------------3---2--| 
G|-4-2-2-0-0-2-2-0-------0-2-0---4-2-2-0-0-2-2-0--------------| 
D|-----------4-4-2-2-2h4-------0-----------4-4-2-2-2-2---2---2| 
A|------------------------------------------------------------| 
E|------------------------------------------------------------| 
 
  Gm       Gm7   C    Csus 4  C  
e|------------------------------------------------------------| 
B|------------------------------------------------------------| 
G|-4-2-2-0-0-2-2-0-------0-2-0--------------------------------| 
D|-----------4-4-2-2-2h4-------0------------------------------| 
A|------------------------------------------------------------| 
E|------------------------------------------------------------| 
 
  F                       Bbm6      F                     Bbm6      F  
e|-2-------2-------2-------------0--2-------2-------2-------------0-2-| 
B|-----3-------3-------3-------3--------3-------3-------3-------3---3-| 
G|---2---2---2---2---2---2-0-3--------2---2---2---2---2---2-0-3-----2-| 
D|------------------------------------------------------------------0-| 
A|--------------------------------------------------------------------| 
E|--------------------------------------------------------------------| 
 
   F  Bbm6  Fsus2  Bbm Bb? Bbm6 Dmaddb6 Gm  C  Csus4  Gm7  
e|-2--0-----0----3---2----0-----2-----0-0---0----0-| 
B|-3--3-----3----3---3----3-----3-----0-2---3----3-| 
G|-2--3-----2----0---0----0-----0-----0-2---2----0-| 
D|-0--0-----0-------------------------2-2---2----2-| 
A|---------------1---1----1-----2-----2-0---0----2-| 
E|------------------------------------0----------0-|
 
 

Видео