RadioHead - Jigsaw Falling Into Place (intro), аккорды

Прокрутка
Тональность
Шрифт
100
INTRO:
d|-----------------|-----------------|-----------------|-----------------| 
B|-----------------|-----------------|-----------------|-----------------| 
G|-----7-----7---7-|-----7-----7---7-|-----7-----7---7-|-----7-----7---7-| 
D|---9-----9-----9-|---9-----9-----9-|---9-----9-9---9-|---9-----9-9---9-| 
A|-----------------|-----------------|-----------------|-----------------| 
D|-9-----9-----9---|-9-----9-----9---|-9-----9-----9---|-9-----9-----9---| 
 
d|-----------------|-----------------|-----------------|-----------------| 
B|-----------------|-----------------|-----------------|-----------------| 
G|----6-----6---6-|-----6-----6---6-|-----6-----6---6-|---4---4---------| 
D|--8-----8-----8-|---8-----8-----8-|---4-----4-----4-|---4---4---------| 
A|-----------------|-----------------|-----------------|-----------------| 
D|8-----8-----8---|-8-----8-----8---|-0-----0-----0---|-0---0---------4/| 
 
d|--------------|--------------|--------------|--------------| 
B|--------------|--------------|--------------|--------------| 
G|----------4---|---6---6--/7--|----------4---|---6---6--/7--| 
D|----4---4-4---|---4---4---4--|----4---4-4---|---4---4---4--| 
A|--5-5---------|--------------|--5-5---------|--------------| 
D|5-----5-----5-|-4---4---4---4|5-----5-----5-|-4---4---4----|
 
 

Видео