Запрещают песни Цоя, Агата Кристи, Наутилус Помпилиус, Зиверт
Отвечаем в отдельной теме

RadioHead - High and Dry, аккорды

Прокрутка
Тональность
Шрифт
100
intro (2x):

E|--0--0--0-|--0--0-0--0--0--0---0---0--0--0-|--0-0--0--0--0---0---0-0-0-|-0----0--0-0-0--0-0-0-0-|----0--0-0-0--0---
B|--0--0--0-|--0--0-0--0--0--0---0---0--0--0-|--0-0--0--0--0---0---0-0-0-|-0----0--0-0-0--0-0-0-0-|----0--0-0-0--0---
G|-13-13-13-|-13	-11-11-11-11--11-13-13-13-|-139--9--9--9---9---9-9-9-|-9----9--9-9-9--9-9-9-9-|----9--9-9-9--9---
D|--x--x--x-|--x--x-x--x--x--x---x---x--x--x-|--x-x--x--x--x---x---x-x-x-|-x----x--x-x-x--x-x-x-x-|----x--x-x-x--x---
A|-11-11-11-|-11-9-9--9--9--9---9--11-11-11-|-11--7--7--7---7---7-7-7-|-7----7--7-7-7--7-7-7-7-|----7--7-7-7--7---
E|----------|--------------------------------|---------------------------|-0----------------------|-0----------------

F#m7add4
Two jumps in a week
       Asus2                        E           Esus4  E
I bet you think that's pretty clever, don't you, boy?
F#m7add4
Flying on your motorcycle
Asus2                           E      Esus4
Watching all the ground beneath you drop
 F#m7add4
You'd kill yourself for recognition
Asus2                            E    Esus4 E
Kill yourself to never, ever stop
  F#m7add4
You broke another mirror
  Asus2                             E    
You're turning into something you are not

           F#m7add4   Asus2
Don't leave me high
              E     Esus4  E  
Don't leave me dry
           F#m7add4   Asus2
Don't leave me high
              E
Don't leave me dry


Intro (1x)

F#m7add4
 Drying up in conversation
Asus2                           E    Esus4   E
 You will be the one who cannot talk
F#m7add4
 All your insides fall to pieces
Asus2                                       E         Esus4   E
 You just sit there wishing you could still make love
F#m7add4
 They're the ones who'll hate you
          Asus2                          E         Esus4   E
 When you think you've got the world all sussed out
F#m7add4
 They're the ones who'll spit at you
Asus2                         E    
 You will be the one screaming out


           F#m7add4   Asus2
Don't leave me high
              E     Esus4  E  
Don't leave me dry
           F#m7add4   Asus2
Don't leave me high
              E
Don't leave me dry


(solo)

         F#m7add4
Oh, it's the best thing that you've ever had
 Asus2                             E
The best thing that you've ever, ever had

Флажолеты:

E|----◊12--
B|--◊12----

    F#m7add4
It's the best thing that you've ever had
 Asus2                            E       Esus4  E
The best thing you have had is gone away


           F#m7add4   Asus2
Don't leave me high
              E     Esus4  E  
Don't leave me dry
           F#m7add4   Asus2
Don't leave me high
              E
Don't leave me dry
           F#m7add4   Asus2   E    Esus4    E
Don't leave me high


           F#m7add4   Asus2
Don't leave me high
              E
Don't leave me dry 

Комментарий автора:

F#m7add4 имеет следующую аппликатуру:
E|-0-
B|-0-
G|-2-
D|-4-
A|-4-
E|---

Сверху представлена акустическая партия данного шедевра. Ей также аккомпанируют 2 электрогитары.
Обе на припеве (кроме финального) играют на перегрузе квинтами F#5 - A5 - E5
В интро Джонни Гринвуд играет клином тремоло (струна задевается куда чаще, чем написано, это ориентировочно): 

G|-16-16-16-16-16-16-16-16-14-14-14-14-14-14-14-13-13-13-13-13-13-13-13-13-13-13-13-13-13

Во втором куплете также похожее тремоло, но только уже на октаву выше:

E|-19-19-19-19-19-19-19-19-17-17-17-17-17-17-17-16-16-16-16-16-16-16-16-16-16-16-16-16-16

И завершается куплет следующим бэндом в унисон с гитарой Эда О'Брайена:

G|--9--11↑(full)↑↑↑↑↑↑11↑↑↑↑11↑↑↑↑11↓↓-9


Гитара Эда О'Брайена также вступает во втором куплете на клине:
E|-------|-7--4------|-----|--------------|---4-------|-------4------0----|--
B|-------|------5----|-5---|--------------|-----------|-------------------|--
G|-9---8-|--------6--|-----|------2--4---|-4-----2---|-1--2------2-------|-1


Первое соло на перегрузе:
B|-5--5--4--5---5--4--5---5--4--5/-7-5--4---5--5--4--5---5--2-------------2--4---4--
G|--------------------------------------------------------------4---4---4------------


B|-5--5--4--5---5--4--5---5--4--5/-7-5--4---5--5--4--5---5--2----
G|--------------------------------------------------------------4-


Третий припев, Эд О'Брайен играет теми же квинтами, Джонни Гринвуд играет следующую мелодию:

B|-5--5--4--5--5--5--4--5--5--5--4--5/7---5--4--5--5--4--5---2---------------------|
G|-----------------------------------------------------------------4---2---1---------|
D|-----------------------------------------------------------------------------4---2-|


B|-5--5--4--5--5--5--4--5--5--5--4--5--5--5--4--5--5--5--4--5--5--5--4--5--5--5--4--5--7--7--9--9-|
G|------------------------------------------------------------------------------------------------|
D|------------------------------------------------------------------------------------------------|

Аутро, Эд О'Брайен: F#5(IX)-A5(XII)-E5(VII)-E5(VII)
Аутро, Джонни Гринвуд:

B|-10--10--10--9--9--7--7--9--10--10--10--9--9--7--7--7--7--9--9--7--9--7-9^-9--9--9--9--9--9--9--9--9-|

B|-10--10--10--9--9--7--7--9--10-------9---------------------------------------------------------------|
 
 
Свернуть Распечатать

Аппликатуры аккордов

Аккорд F#m7add4Аккорд Asus2Аккорд EАккорд Esus4
помощники
2,040 1 14.04.2022

Видео