RadioHead - I Promise, аккорды

Прокрутка
Тональность
Шрифт
100
Riff 1:
E-----------------------------------------------|
B-----------------------------------------------|
G-----------------------------------------------|
D-----------------------------------------------|
A---11---9-----11--9------11-9-9-9--------------|
E----0---0--0--0---0--0----0-0-0-0--------------|

E--------------------------------------------------|
B--------------------------------------------------|
G--------------------------------------------------|
D--------------------------------------------------|
A---12---11----12--11-----12-11-11-11--------------|
E----0---0--0--0---0--0----0-0--0--0---------------|

E-----------------------------------0-------------|
B-----------------------------------0-------------|
G-----------------------------------9-------------|strum for a bar
D-----------------------------------9-------------|
A---9---7-----9---7-------9-7-7-7---7-------------|
E---0---0--0--0---0--0----0-0-0-0---0-------------|

Riff 2:
E-----------------------------------0------------|
B-----------------------------------0------------|
G-----------------------------------9------------|strum for a bar
D-----------------------------------9------------|
A---6--6--6--6--6---7---9------9-9--7------------|
E---7--7--7--7--7---7---7------0-0--0------------|

Intro: Riff 1 x2

Verse: Riff 1 x2
       Riff 2 x2

Комментарий автора:

Lyrics:
I will not obey again
I promise
Even if i get bored
I promise
Even when you knock me out
I promise
Say my prayers every night
I promise

I know where your shadows tread?
I promise
Attentions and the chitty chat
I promise
Even your ship is wrecked
I promise
Tongue to rot in bed? see below for another suggestion
I promise

I won't fool around no more
I promise
Even when i get bored
I promise
Even when your ship is wrecked
I promise
Time to go rot in bed?
I promise

I won't run away no more
I promise
 
 

Видео