RadioHead - Just, аккорды

Прокрутка
Тональность
Шрифт
100
Intro:
e|--------------------------------------|
B|-5-5-x-x-x-8-8-8-x-7-7-x-x-x-10-10-10-|
G|-5-5-x-x-x-8-8-8-x-7-7-x-x-x-10-10-10-|
D|-5-5-x-x-x-8-8-8-x-7-7-x-x-x-10-10-10-|
A|-3-3-x-x-x-6-6-6-x-5-5-x-x-x-8--8--8--|
E|--------------------------------------|

Riff 1:
e|--------------------------------------10-10-11-12-12-13-15-|
B|-----------------------------------------------------------|
G|-x-x-x-5-5-7-8-8-10-11-11-12-14-15-17-7--7--8--10-10-11-13-|
D|-x-x-x-----------------------------------------------------|
A|-x-x-x-3-3-5-6-6-8--9--9--10-12-13-15----------------------|
E|-----------------------------------------------------------|

Verse:
e|--5---4----------------------5--4---------------------|
B|--5---4----------------------5--4---------------------|
G|--5---5---14-------16--------5--5--14--------9--------|
D|--7---6---15-16-18-17-18-20--7--6--15-16-18--10-11-13-|
A|--7---6---x--------x---------7--6--x---------x--------|
E|--5---4---13-------15--------5--4--13--------8--------|

e|----------------------------------------------|
B|----------------------------------------------|
G|-----5-7-7b---5---5-7-7b---5---4-----5-----8b-|
D|---7--------7---6--------7---7---5-----4------|
A|-----------------------------------5-----4----|
E|----------------------------------------------|

Chorus:
e|---------------0--------------0---|
B|--------------------------------1-|
G|----------3--3---3----------------|
D|--10-10-x-4---------3-3-3-x-3-----| x2
A|--10-10-x-4---------3-3-3-x-3-----|
E|--8--8--x-2---------1-1-1-x-1-----|

e|--------------------------------------10-10-11-12-12-13-15-|
B|-----------------------------------------------------------|
G|-x-x-x-5-5-7-8-8-10-11-11-12-14-15-17-7--7--8--10-10-11-13-|
D|-x-x-x-----------------------------------------------------|
A|-x-x-x-3-3-5-6-6-8--9--9--10-12-13-15----------------------|
E|-----------------------------------------------------------|

Bridge:
e|--------------------------------------------
B|--------------------------------------------
Gv-17--17--17-16--14-14-14-x-x--17--17--17-15-
D|--------------------------------------------
A|-15--15--15-14--12-12-12-x-x--15--15--15-13-
E|--------------------------------------------

e|------------------------------------------------
B|------------------------------------------------
G|-13-13-13-12/13-12-12-12-x-x-10/12-10-10-10-x-x-
D|------------------------------------------------
A|-11-11-11-10/11-10-10-10-x-x--8/10--8--8--8-x-x-
E|------------------------------------------------

Solo:
e|------------------------------------------8/p6----------------
B|----------------------------------------8--------8/p6--7-5----
G|-8p5------5-8p5-----5-8p5-----5-8p5-------------------------7-
D|-----8-/--------8/--------8/--------8/------------------------
A|--------------------------------------------------------------
E|--------------------------------------------------------------

.5-----------------]
e|------------------------------------------------------------
B|---------------------------------------6/-6-6-6-6-6-6-6-6-6-
G|--8p5-----5-8p5-----5-8p5-----5-8p5-------------------------
D|------8/--------8/--------8/--------8/----------------------
A|------------------------------------------------------------
E|------------------------------------------------------------

e|--------------------------------------
B|--------------------------------------
G|--8p5------8p5-----5--8p5-------------
D|------8/-------8/---------8/---sl.----
A|--------------------------------------
E|------------------------------------x-
 
 

Видео