RadioHead - Nice Dream, аккорды

Прокрутка
Тональность
Шрифт
100
Intro: Cmaj7 Badd11 Bbadd#11 Aadd9
       Cmaj7 Badd11 Bbadd#11 Aadd9 Badd11/A Aadd9 Badd11/A

Verse 1:
     Aadd9                    D6/9
They love me like I was their brother,
                        E7sus4 E7
They protect me, listen to me
     Aadd9              D6/9
They dug me my very own garden,
                          E7sus4 E7
Gave me sunshine, made me happy

Chorus 1:
     Bm11        E7     Aadd9 Badd11/A Aadd9 Badd11/A
Nice dream, nice dream, nice dream.

Verse 2:
  Aadd9                      D6/9
I call up my friend the good angel
                       E7sus4   E7
But she's out with her answerphone
    Aadd9                         D6/9
She say's that she'd love to come help but
               E7sus4        E7
the sea would electrocute us all

Chorus 2:
     Bm11        E7          Aadd9       B11/F#
Nice dream, nice dream, nice dream, nice dream,
     Bm11        E7          Aadd9       B11/F#
Nice dream, nice dream, nice dream, nice dream, 
      Bm11        Bbadd#11
Nice dream, nice dream.

Instrumental: Asus2 Bsus4 G6/C D6sus2 }x3
              Asus2 Bsus4 G6/C

Outro: Bm11 B9sus4 E7sus4 Aadd9/E
       Aadd9 B11/F# | Bm11 B9sus4 E7sus4 E7

     Aadd9       B11/F#       Bm11    Asus4/Bb Aadd9
Nice dream, nice dream, nice dream, nice dream
____________________________+____
Intro:
e|-------------------------|
B|-----2----------0--------|
G|-------2-----------0-----| x2
D|---2------2--1--------1--|
A|-------------------------| 
E|-------------------------|

Bridge:
e|------------------------------------------------------|
B|--0--3--5s4s5---0--3--5s4------0--3--5s4s5---0--3--5s4|
G|--------------------------2---------------------------|
D|------------------------------------------------------|
A|------------------------------------------------------|
E|------------------------------------------------------|

Комментарий автора:

Chords:
  Cmaj7    Badd11   Bbadd#11 Aadd9    Badd11/A D6/9     E7sus4   E7       Bm11     B11/F#   Asus2    Bsus4
E|-0------|-0------|-0------|-0------|-0------|-0------|-0------|-0------|-0------|-0------|-0------|-0------|
B|-0------|-0------|-0------|-0------|-0------|-0------|-0------|-0------|-0------|-0------|-0------|-0------|
G|-9------|-8------|-7------|-6------|-8------|-11-----|-7------|-7------|-7------|-8------|-2------|-4------|
D|-10-----|-9------|-8------|-7------|-9------|-12-----|-7------|-6------|-7------|-7------|-2------|-4------|
A|-10-----|-9------|-8------|-7------|-0------|-12-----|-7------|-7------|-x------|-9------|-0------|-2------|
E|-8------|-7------|-6------|-5------|--------|-10-----|-0------|-0------|-7------|--------|--------|--------|

  G6/C     D6sus2   B9sus4   Aadd9/E  Asus4/Bb
E|-0------|-0------|-0------|-0------|-0------|   
B|-0------|-0------|-0------|-0------|-5------|
G|-5------|-7------|-6------|-6------|-7------|
D|-5------|-7------|-7------|-7------|-7------|
A|-3------|-5------|-x------|-7------|-x------|
E|--------|--------|-7------|-0------|-6------|
 
 

Видео