RadioHead - Pyramid Song, аккорды

Прокрутка
Тональность
Шрифт
100
Intro / Interlude:
  F#  Gmaj7 A6        
e-2--2--2--2--2--2--2--2--2-
B-2--2--3--2--2--2--3--2--2-
G-3--3--0--2--2--2--0--3--3-
D-4--4--0--2--2--2--0--4--4-
A-4--4--2--0--0--0--2--4--4-
E-2--2--3-----------3--2--2-

Verse:
  F#  Gmaj7 A6    Gmaj7 F#   F#m   E    Gmaj7  F#
e-2--2--2--2--2--2--2--2--2--------------2--2--2--2-
B-2--2--3--2--2--2--3--2--2--2--2--0--0--3--3--2--2-
G-3--3--0--2--2--2--0--3--3--2--2--1--1--0--0--3--3-
D-4--4--0--2--2--2--0--4--4--4--4--2--2--0--0--4--4-
A-4--4--2--0--0--0--2--4--4--4--4--2--2--2--2--4--4-
E-2--2--3-----------3--2--2--2--2--0--0--3--3--2--2-

Violin Fills:
e------------------------------------
B------------------------------------
G-11---9-11-13-11-9-13-11--13-11-9-8-
D------------------------------------
A--9---7--9-11--9-7-11--9--11--9-7-6-
E------------------------------------

Some fills:
e--------------------------------|
B--------------------------------|
G---11-9-13-9-11-13-9-11-9-------|
D--------------------------12-11-|
A--------------------------------|
E--------------------------------|

E---14-12-16-12-14-16-12-14-12-------|
B------------------------------15-14-|
G------------------------------------|
D------------------------------------|
A------------------------------------|
E------------------------------------|
 
 

Видео