RadioHead - You, аккорды

Прокрутка
Тональность
Шрифт
100
Intro: 
e|------0-------0------0-------0------0------0------0------0-|
B|----0------15------0------15------0------0------0------0---|
G|-13-----13------13-----13------16-----16-----14-----14-----|   
D|-----------------------------------------------------------|   
A|-----------------------------------------------------------|
E|-----------------------------------------------------------|

       E   Em  C   G   E        C   G    
e|---------0-0--------------------------|
B|---------0-0-------------11b/---------|
G|-x-x-1-1-0-0-5-5-----1-1------5-5-----|
D|-x-x-2-2-2-2-5-5-5-5-2-2------5-5-5-5-|
A|-x-x-2-2-2-2-3-3-5-5-2-2------3-3-5-5-|
E|-x-x-0-0-0-0-----3-3-0-0----------3-3-|

Bass Line:
G|-----------------------|
D|-----------------------|
A|---------3-3-2-0-------|
E|-0-0-0-0---------3-2-0-|

Verse: 
E + Bass Line
You are, the sun the moon and stars are you
And I, could never run away from 

Pre-Solo:
   C#        C                                 C#        C      
e|-----------------------------------------------------------------|
B|-----------------------------------------------------------------|
G|-6-6-6-6-6-5-5-5-5-5-7-9-9-7-9-9-7-9-9-7-9-9-6-6-6-6-6-5-5-5-5-5-|
D|-6-6-6-6-6-5-5-5-5-5-0-----------0-----------6-6-6-6-6-5-5-5-5-5-|
A|-4-4-4-4-4-3-3-3-3-3-------------------------4-4-4-4-4-3-3-3-3-3-|
E|-----------------------------------------------------------------|   
   you...

Solo:
e|--------------------------------------------------------------------------|
B|--------------------------------------------------------------------------|
G|-7-9-9-9-11-11-11-12-12-12-14-14-14-16-16-16-17-17-17-16-16-16------------|
D|---------------------------------------------------------------9-12-9-13b-|
A|--------------------------------------------------------------------------|
E|--------------------------------------------------------------------------|
  
E   Em (let ring)                  E
You try, but when can I can I eat this
    Em (let ring)
And why, should I believe myself, not

e|-4~3~0-------------------2-0-|
B|-------------3---------------|
G|-----------0---0-------0-----|   
D|---------0-------0---0-------|
A|-------3---------------------|
E|-------------------3---------|
   you...

E + Bass Line
It´s like, the world is gonna end so soon
And why, should believe myself

e|------0-------0------0-------0------0------0------0------0-|
B|----0------15------0------15------0------0------0------0---|
G|-13-----13------13-----13------16-----16-----14-----14-----|   
D|-----------------------------------------------------------|   
A|-----------------------------------------------------------|
E|-----------------------------------------------------------|

       E   Em  C   G   E        C   G    
e|---------0-0--------------------------|
B|---------0-0-------------11b/---------|
G|-x-x-1-1-0-0-5-5-----1-1------5-5-----|
D|-x-x-2-2-2-2-5-5-5-5-2-2------5-5-5-5-|
A|-x-x-2-2-2-2-3-3-5-5-2-2------3-3-5-5-|
E|-x-x-0-0-0-0-----3-3-0-0----------3-3-|
You, me and everything
Caught in the fire           
I, can see me drowning
Caught in the fire

E    Em     C    G
You, me and everything
E       Em     C G
Caught, in the fire
E  Em         C   G
I, can see me drowning
E       Em     C G
Caught, in the fire
 
 

Видео