Радиопомехи - Вокзал, аккорды

Прокрутка
Тональность
Шрифт
100
Вступление (х2):
e|---------------------------------------------------------
b|---------------------------------------------------------
g|------------0------------0-----------0---------------0---
D|-------4-------4-----4-----4----4-----4--------4-------4-
A|---3----------------------------2------------------------
E|---------------------3-------------------------0---------

|---------------------------------------------------------
|---------------------------------------------------------
|------------0------------0-----------0---------------0---
|-------4-------4-----4-----4----4-----4--------4-------0-
|---3----------------------------2------------------------
|---------------------3-------------------------0---------

Куплет:
Cadd9  G   Bm         Em
Я тебя провожаю на поезд,
Я тебя целую по пояс,
С милой рай и в общем вагоне,
Но ты в Париже, а я в дурдоме

Старуха семечки торгует у вокзала
Их ей не надо, и мне не надо,
Но ты в дурдоме, а я в Париже,
Целую поезд, целую ниже... 

Проигрыш: C G B7add11 Em (x3)