Rammstein - Sonne, аккорды

Прокрутка
Тональность
Шрифт
100
Intro: (Hard Distortion)
  Fm  Bsus2/F#  Bb
1:-1---2--------1-
2:-1---2--------1-
3:-1---4--------3-
4:-3---4--------3-
5:-3---2--------1-
6:-1---2--------1-
       /
     Slide

Куплет = intro

Chorus:
  Fm  Cm  D#m C#m
1:-1---3---6---4-
2:-1---4---6---4-
3:-1---5---4---6- x2
4:-3---5---4---6-
5:-3---3---6---4-
6:-1---3---6---4-

    E Cm D#m C#m  Fm Cm D#m C#m
1:--8--3--6---5----1--3--6---5-
2:--9--4--6---5----1--4--6---5-
3:--10-5--4---6----1--5--4---6-
4:--10-5--4---6----3--5--4---6-
5:--8- 3--6---4----3--3--6---4-
6:--8--3--6---4----1--3--6---4-
 
 
Свернуть Распечатать

Видео