Rammstein - Du Hast, аккорды

Прокрутка
Тональность
Шрифт
100
Проигрыш, Припев играются одинаково:
E|------------------------------------|
B|------------------------------------|
G|------------------------------------|
D|-2-2-2-2-7-7-7-7-10-10-9-9-2-2-2-2--|
A|-2-2-2-2-7-7-7-7-10-10-9-9-2-2-2-2--|
E|-0-0-0-0-5-5-5-5-8--8--7-7-0-0-0-0--|

Куплет играется следующим образом:
Du
Du hast
Du hast mich

Du
Du hast
Du hast mich
Du hast mich

E|----------|
B|----------|    НА ОДНОМ КВИНТЕ
G|----------|
D|-2-2-2-2--|
A|-2-2-2-2--|
E|-0-0-0-0--|

Du hast mich gefragt
Du hast mich gefragt
Du hast mich gefragt und ich hab nichts gesagt

E|-------------------|
B|-------------------|
G|-------------------|  НА ЭТОМ КВИНТЕ
D|-------------------|
A|-10-10-9-9-2-2-2-2-|
E|-8--8--7-7-0-0-0-0-|

Припев:
E|------------------------------------|
B|------------------------------------|
G|------------------------------------|
D|-2-2-2-2-7-7-7-7-10-10-9-9-2-2-2-2--|
A|-2-2-2-2-7-7-7-7-10-10-9-9-2-2-2-2--|
E|-0-0-0-0-5-5-5-5-8--8--7-7-0-0-0-0--|

Du
Du hast
Du hast mich
Du hast mich

E|----------|
B|----------|    НА ОДНОМ КВИНТЕ
G|----------|
D|-2-2-2-2--|
A|-2-2-2-2--|
E|-0-0-0-0--|

Du hast mich gefragt
Du hast mich gefragt
Du hast mich gefragt und ich hab nichts gesagt

E|-------------------|
B|-------------------|
G|-------------------|  НА ЭТОМ КВИНТЕ
D|-------------------|
A|-10-10-9-9-2-2-2-2-|
E|-8--8--7-7-0-0-0-0-|

Припев:
E|------------------------------------|
B|------------------------------------|
G|------------------------------------|
D|-2-2-2-2-7-7-7-7-10-10-9-9-2-2-2-2--|
A|-2-2-2-2-7-7-7-7-10-10-9-9-2-2-2-2--|
E|-0-0-0-0-5-5-5-5-8--8--7-7-0-0-0-0--|

Willst du bis der Tod euch scheidet
treu ihr sein fur alle Tage...

nein

Willst du bis zum Tod der Scheide
sie lieben auch in schlechten Tagen....

nein
 
 
Свернуть Распечатать

Видео