Rammstein - Mutter, аккорды

Прокрутка
Тональность
Шрифт
100
Intro:
E|---------------7----------|
B|-------8---8-7---8-----10-|
G|-----9---9---------9------|
D|---9-----------------9----|
A|-7------------------------|
E|--------------------------|
 
2 раза:
E|-----------7-----|
B|---------7---7---|
G|-------8-------8-|
D|-----9-----------|
A|---9-------------|
E|-7---------------|

Distortion Part:

(Guitar 1)
E|-------------|
B|-------------|
G|---------7-4-|
D|-2-2-5-7-7-4-|
A|-2-2-5-7-5-2-|
E|-0-0-3-5-----|

(Guitar 2)
E|-------------------------------------|
B|-------------12--12-12-10------------|
G|-8/9-9--9/12---------------11--12-11-|
D|-------------------------------------|
A|-------------------------------------|
E|-------------------------------------|

Second time they play the distortion part (Guitar 2)
E|----------------------------------------|
B|-------------12--12-12-10------12-10----|
G|-8/9-9--9/12---------------11--------12-|
D|----------------------------------------|
A|----------------------------------------|
E|----------------------------------------|

Next Part (2:19):
E|------------------------|
B|------------------------|
G|-11/12---14-11---17--14-|
D|------------------------|
A|--9/10---12--9---15--12-|
E|------------------------|

(2:36) Keyboard part 1:
E|----------------------7---8-|
B|-----5-8-7-5---8---5----5---|
G|-------------8--------------|
D|----------------------------|
A|----------------------------|
E|-0--------------------------|

(2:36) Keyboard part 2 (played over part 1):
E|----------------------|
B|----------------------|
G|-16--16-15------------|
D|-----------16---14-16-|
A|----------------------|
E|----------------------|

(2:56):

Guitar 1
E|--------------|
B|--------------|
G|----------9-6-|
D|-4-4/7/9--9-6-|
A|-4-4/7/9--7-4-|
E|-2-2/5/7------|

Guitar 2
E|-------------------------------------------|
B|----------------14--14--14-14-12-----------|
G|-10/11-11-11/14------------------13--14-13-|
D|-------------------------------------------|
A|-------------------------------------------|
E|-------------------------------------------|

(3:29):
E     B
G|-11--13----|
D|--------11-|
A|--9--11----|
E|---------9-|

Ending Note:
E|---|
B|---|
G|---|
D|-4-|
A|-4-|
E|-2-|
 
 
Свернуть Распечатать

Видео