Rammstein - Das Modell, аккорды

Прокрутка
Тональность
Шрифт
100
 E||-----------------------------|------------------------------| 
 B||-----------------------------|------------------------------| 
 G||*---------2---------5------5-|-----------------------------*| 
 D||*---------2---------5------5-|---------2----------5-----5--*| 
 A||--0-0-0-0-0-0-0-0-0-3--0-0-3-|---------2----------5-----5---| 
 E||-----------------------------|-0-0-0-0-0--0-0-0-0-3-0-0-3---| 
 
 E||--------------|--------------| 
 B||--------------|--------------| 
 G||--5-----------|--4-----------| 
 D||--5-----------|--4-----------| 
 A||--3-----------|--2-----------| 
 E||--------------|--------------| 
 
 E||--------------|--------------|--------------|---------------| 
 B||--------------|--------------|--------------|---------------| 
 G||--------------|--------------|--5-----------|--4------------| 
 D||--5-----------|--5-----------|--5-----------|--4------------| 
 A||--5-----------|--5-----------|--3-----------|--2------------| 
 E||--3-----------|--3-----------|--------------|---------------| 
 
 E||--------------|--------------| 
 B||--------------|--------------| 
 G||--9-----------|--6----7--9---| 
 D||--9-----------|--------------| 
 A||--7-----------|--------------| 
 E||--------------|--------------| 
 
Intro Chords (Played during the French inroduction):  
E C7 (possibly an A chord of some type in there as well 
 
Verse:
Played with Guitar and between lyrics: 
Some time in the song it is plyed, with less A and E notes 
A A A A A A A C A A C A A 
E E E E E E E G E E G E E 
 
Played in between the lyrics:  
G B G E D F D 
 
Solo Part:  
E C A C E C E 
E B G B E D E C A C E C E E B G B E 

During the last solo hit a high G note and let it sustain 
for a long time. 

After one of the solos, this is played (during the Bridge):  
C B B G G C B E 
 
Outro Notes: C and G      
 
 

Видео