Rammstein - Der Meister, аккорды

Прокрутка
Тональность
Шрифт
100
 Intro:
 e|-------------------------------|-------------------------- 
 b|-------------------------------|-------------------------- 
 g|---------7h8-------7h8-----7h8-|---------7h8-------7h8---- 
 D|-0-0-0-0-7h8-0-0-0-7h8-0-0-7h8-|-0-0-0-0-7h8-0-0-0-7h8---- 
 A|-------------------------------|----------------------0-0- 
 E|-------------------------------|-------------------------- 
 
 e|-------| 
 b|-------| 
 g|-5h7---| 
 D|-5h7---| 
 A|-------| 
 E|-------| 
 
Verse:
 e|-------------------------------------------| 
 b|-------------------------------------------| 
 g|-7--5--7--5--7--5--7--9--7-10--------------| 
 D|-7--5--7--5--7--5--7--9--7-10--------------| 
 A|-5--3--5--3--5--3--5--7--5--8--------------| 
 E|---0--0--0--0--0--0--0--0------------------| 
 
It changes somewhere in the song and does this:
 e|-------------------------------------------| 
 b|-------------------------------------------| 
 g|-9---7---9---7---9---7---9---7-10----------| 
 D|-9---7---9---7---9---7---9---7-10----------| 
 A|-7---5---7---5---7---5---7---5--8----------| 
 E|---0---0---0---0---0---0---0--0---0--------| 
 
Chorus:
 e|-------------------------------|------------------------| 
 b|-------------------------------|------------------------| 
 g|---------7h8-------7h8-----7h8-|---------7h8-------7h8--| 
 D|-0-0-0-0-7h8-0-0-0-7h8-0-0-7h8-|-0-0-0-0-7h8-0-0-0-7h8--| 
 A|-------------------------------|------------------------| 
 E|-------------------------------|------------------------| 
 
Lauft! 
 
Weil der Meister uns gesandt 
verkunden wir den Untergang 
der Reiter der Boshaftigkeit 
futtert sein Geschwur aus Neid 
Neid (3x) 
 
Die Wahrheit ist wie ein Gewitter 
es kommt zu dir du kannst es horen 
es kund zu tun ist ach so bitter 
es kommt zu dir um zu zerstoren 
um zu zerstoren (2x) 
 
Weil die Nacht im Sterben lag 
verkunden wir den jungsten Tag 
es wird kein Erbarmen geben 
lauft, lauft (3x), um euer Leben 
 
Die Wahrheit ist ein Chor aus Wind 
kein Engel kommt um euch zu rachen 
diese Tage eure letzten sind 
wie Stabchen wird es euch zerbrechen 
euch zerbrechen (2x) 
 
Es kommt zu euch (2x) 
Es kommt zu euch [lauft, lauft] 
Als das Verderben 
 
Die Wahrheit ist ein Chor aus Wind 
kein Engel kommt um euch zu rachen 
diese Tage eure letzten sind 
wie Stabchen wird es euch zerbrechen 
euch zerbrechen (2x)
 
 

Видео