Rammstein - Das Modell, аккорды

Прокрутка
Тональность
Шрифт
100
Шестая струна ре (D) 
 
Основной рифф:  
 E|----------------------------|--------------------------------| 
 B|----------------------------|--------------------------------| 
 G|----------------------------|--------------------------------| 
 D|-5-5-5-5-5--5-5-5-5--8--5-8-|-0-0-0-0-0--0-0-0-0--3--0-3-----| 
 A|-5-5-5-5-5--5-5-5-5--8--5-8-|-0-0-0-0-0--0-0-0-0--3--0-3-----| 
 D|-5-5-5-5-5--5-5-5-5--8--5-8-|-0-0-0-0-0--0-0-0-0--3--0-3-----| 
 
 Проигрыш:(лучше играть слайдом) 
 E|---|---|---|---|---|---|------------------|------------------| 
 B|---|---|---|---|---|---|------------------|------------------| 
 G|---|---|---|---|---|---|------12--14--15--|---17--19---------| 
 D|-8-|-7-|-3-|-3-|-8-|-7-|--12--------------|------------------| 
 A|-8-|-7-|-3-|-3-|-8-|-7-|--12--------------|------------------| 
 D|-8-|-7-|-3-|-3-|-8-|-7-|--12--------------|------------------| 
 
 Во втором куплете добавляется небольшой солячок: 
 E|-------------------------|-------------------------| 
 B|-------------------------|-------------------------| 
 G|-------------------------|-------------------------| 
 D|-5-5-5-5-5-5-5-5-5-8-5-8-|-0-0-0-0-0-0-0-0-0-3-0-3-| 
 A|-5-5-5-5-5-5-5-5-5-8-5-8-|-0-0-0-0-0-0-0-0-0-3-0-3-| 
 D|-5-5-5-5-5-5-5-5-5-8-5-8-|-0-0-0-0-0-0-0-0-0-3-0-3-| 
 
 E|-------------------------| 
 B|-8-11-10-11--10----------| 
 G|----------------10-7-----| 
 d|-------------------------| 
 a|-------------------------| 
 e|-------------------------| 
 
Sie ist ein Modell und sie sieht gut aus 
ich nehm sie heut gerne mit zu mir nach Haus 
sie wirkt so kuhl an sie kommt niemand ran 
doch vor der Kamera da zeigt sie was sie kann 
 
Sie trinkt in Nachtclubs immer Sekt korrekt 
und hat hier schon alle Manner abgecheckt 
Im Scheinwerferlicht ihr junges Lacheln strahlt 
sie sieht gut aus und Schonheit wird bezahlt 
 
Sie stellt sich zur Schau fur das Konsumprodukt 
und wird von millionen Augen angeguckt 
ihr neues Titelbild ist einfach fabelhaft 
ich muss sie wiedersehen ich weiss sie hats geschafft
 
 
Свернуть Распечатать