Rammstein - Fruhling in Paris, аккорды

Прокрутка
Тональность
Шрифт
100
Intro and Verses:
e|-------------------------------------------------------------------|
B|-------------------------------------------------------------------|
G|-----4-------4-------4-------4-------4-------4-------4-------4-----|
D|-------6-------6-------6-------6-------6-------6-------6-------6---|
A|---------6-------6-------6-------6-------7-------7-------6-------6-|
E|---4-------4-------4-------4-------0-------0-------4-------4-------|

Pre-Chorus:
e|-------------------------------------------------------------------|
B|-----7-------7-------5-------5-------7-------7-------5-------5-----|
G|-------8-------8-------6-------6-------8-------8-------6-------6---|
D|---------8-------8-------6-------6-------8-------8-------6-------6-|
A|---6-------6-------4-------4-------6-------6-------4-------4-------|
E|-------------------------------------------------------------------|
"Sie rief mir Worte ins Gesicht"

e|-------------------------------------------------------------------|
B|-----7-------7-------5-------5-------------------------------------|
G|-------8-------8-------6-------6-----3-------3-------3-------3-----|
D|---------8-------8-------6-------6-----4-------4-------4-------4---|
A|---6-------6-------4-------4-------------4-------4-------4-------4-|
D|-----------------------------------2-------2-------2-------2-------|

Chorus:
e|-------------------------------------------------------------------|
B|-----4-------4-------4-------4-------------------------------------|
G|-------4-------4-------4-------4-----4-------4-------4-------4-----|
D|---------4-------4-------4-------4-----6-------6-------6-------6---| x2
A|---2-------2-------2-------2-------------6-------6-------6-------6-|
E|-----------------------------------4-------4-------4-------4-------|
"oh non, rien de rien...  [...] "

e|-------------------------------------------------------------------|
B|-------------------------------------------------------------------|
G|-----3-------3-------3-------3-------1-------1-------1-------1-----|
D|-------4-------4-------4-------4-------2-------2-------2-------2---|
A|---------4-------4-------4-------4-------2-------2-------2-------2-|
D|---2-------2-------2-------2-------0-------0-------0-------0-------|

Heavier Guitar (in the chorus at 2:00 and later)
plays the power chords of the clean section
e.g. Chorus:
e|-------------------------------------------------------------------|
B|-------------------------------------------------------------------|
G|--4---4--4-4---4-------------------4---4--4-4---4------------------|
D|--4---4--4-4---4--6---6--6-6---6---4---4--4-4---4---6---6--6-6---6-|
A|--2---2--2-2---2--6---6--6-6---6---2---2--2-2---2---6---6--6-6---6-|
E|------------------4---4--4-4---4--------------------4---4--4-4---4-|

Solo: (2:22 e.g.)
e|------------------------------------------------------------------12s140-|
B|--16~---16h17-16-s11~--12~-----s14~-16-17-16-------------14~~~-16--------|
G|----------------------------------------------15~---16~------------------|
D|-------------------------------------------------------------------------|
A|-------------------------------------------------------------------------|
E|-------------------------------------------------------------------------|

e|------------------12s14~~~-------------------------------------------|
B|--14~~~~~~~----16-----------17p16--first-time:-slide-down-+-fade-out-|
G|---------------------------------------------------------------------|
D|-----------------------------------later:repeat-from beginning-------|
A|---------------------------------------------------------------------|
E|---------------------------------------------------------------------|
 
 
Свернуть Распечатать

Аппликатуры аккордов

pityuhinpityuhin
автор подбора аккордов
10,805 10 30.10.2016

Видео