Rammstein - Wollt Ihr Das Bett In Flammen, аккорды

Прокрутка
Тональность
Шрифт
100
Main Riff:
1|-------------------------------|------------
2|-------------------------------|------------
3|-------------------------------|-1010101010-
4|--7--8--7--5~~7--8--7--5~~7----|-1010101010-
5|--7--8--7--5~~7--8--7--5~~7----|-8-8-8-8-8--
6|--5--6--5--3~~5--6--5--3~~5----|------------

Bass
1|-------------------
2|-------------------
3|-------------------
4|-5-6-5-3~5-6-5-3~5-

Interlude:
1|-----------------
2|-----------------
3|-----------------
4|-5--55-5-5--5-55- x4
5|-5--55-5-5--5-55-
6|-3--33-3-3--3-33-
 
 
Свернуть Распечатать

Видео