Rammstein - Puppe, аккорды

Прокрутка
Тональность
Шрифт
100
Right channel guitar:
                 Bm
e|---------------------------------|
B|---------------------------------|
G|---4---4---4---4---4---4---4---5-|
D|---------------------------------|
A|-2---2---2---2---2---2---2---2---|
E|---------------------------------|

Left channel guitar:
           Bm                  Bsus2                 Bsus4                   B
e|------7---------7---|------7---------7----|------7---------7---|------7---------7---|
B|--------------------|---------------------|--------------------|--------------------|
G|-7---------7--------|-6---------6---------|-9---------9--------|-8---------8--------|
D|----9---9-----9---9-|----9---9-----9---9--|----9---9-----9---9-|----9---9-----9---9-|
A|--------------------|---------------------|--------------------|--------------------|
E|--------------------|---------------------|--------------------|--------------------|

          B7                Bmaj7
e|-----2--------2---|-----3--------3---|
B|---0---0----0---0-|---0---0----0---0-|
G|-2--------2-------|-2--------2-------|
D|------------------|------------------|
A|------------------|------------------|
E|------------------|------------------|

Intro: Bm | Bm | Bm Bsus2 Bsus4 B
        Bm Bsus2 B7 Bmaj7

Verse 1:
Bm                     Bsus2
Wenn Schwesterlein zur Arbeit muss
Bsus4                   B
Schließt mich im Zimmer ein
Bm             Bsus2
Hat eine Puppe mir geschenkt
B7                    Bmaj7
Dann bin ich nicht allein
Bm                     Bsus2
Wenn Schwesterlein zur Arbeit muss
Bsus4                   B
Fährt sie nicht mit der Bahn
Bm                     Bsus2
Ihr Schaffensplatz ist gar nicht weit
B7                       Bmaj7
Ist gleich im Zimmer nebenan

Pre-Chorus:
Bm               Bsus2
Am Himmel dunkle Wolken zieh'n
Bsus4                 B
Ich nehme artig meine Medizin
Bm                Bsus2
Und warte hier im Daunenbeet
B7            Bmaj7
Bis die Sonne untergeht

Interlude: Bm

Verse 2:
Bm                 Bsus2
Sie kommen und sie gehen
Bsus4                B
Und manchmal auch zu zweit
Bm               Bsus2
Die späten Vögel singen
B7                Bmaj7
Und die Schwester schreit

Pre-Chorus:
Bm               Bsus2
Аm Himmel dunkle Wolken zieh'n
Bsus4                 B
Ich nehme artig meine Medizin
Bm                Bsus2
Und warte hier im Daunenbeet
B7            Bmaj7
Bis die Sonne untergeht

Chorus:
N.С.
Und dann reiß' ich der Puppe den Kopf ab
N.С.
Dann reiß' ich der Puppe den Kopf ab
N.С.
Ja, ich beiß' der Puppe den Hals ab
N.С.
Es geht mir nicht gut
    B5                        D5
Ich reiß' der Puppe den Kopf ab
        B5                           D5
Ja, ich reiß' ich der Puppe den Kopf ab
         B5                            D5
Und dann beiß' ich der Puppe den Hals ab
B5                A5   F#5
Es geht mir nicht gut, nein!

Post-Chorus:
B5      D5    B5
          Dam-dam
B5      D5    B5
          Dam-dam
B5      D5    B5
          Dam-dam

B5 C5 B5 D5
B5 C5 B5 A#5

Verse 3:
Bm
Wenn Schwesterlein der Arbeit frönt
Bm
Das Licht im Fenster rot
Bm
Ich sehe zu durchs Schlüsselloch
Bm
Und einer schlug sie tot

Chorus:
          B5                           D5
Und jetzt reiß' ich der Puppe den Kopf ab
        B5                        D5
Ja, ich reiß' der Puppe den Kopf ab
         B5                           D5
Und dann beiß' ich der Puppe den Hals ab
B5                A5   F#5
Jetzt geht es mir gut, ja!
    B5                        D5
Ich reiße der Puppe den Kopf ab
        B5                        D5
Ja, ich reiß' der Puppe den Kopf ab
          B5                            D5
Und jetzt beiß' ich der Puppe den Hals ab
B5                A5   F#5
Es geht mir sehr gut, ja!

Post-Chorus:
B5      D5    B5
          Dam-dam
B5      D5    B5
          Dam-dam
B5      D5    B5
          Dam-dam

B5 C5 B5 D5
B5 C5 B5 A#5

Outro: B5 C5 B5 D5
       B5 C5 B5 A#5 | Bm       
 
 
Свернуть Распечатать

Видео