Rammstein - Wilder Wein, аккорды

Прокрутка
Тональность
Шрифт
100
Вступление:
4|---2---2---2---3-|---2---2---2---3-|
5|-0---0---0---0---|-0---0---0---0---|

4|--2---2---2---3-2-0------------|
5|0---0---0---0-------3-2-3-2-0-2|

Куплет:
5|-0--2--3--2--5---3--2--0--2--3--2--3---2---|

После куплета:
5|-0---0-2-3-2-0-2-3-2-0-2-3---2---|
6|---0-----------------------------|

5|-0---0-2-3-2-0-2-3-2-0-2-3-5-3-7-|
6|---0-----------------------------|

На 3-х гитарах:

Аккорды: Em | D | C | D 

Окончание:
4|--2---2---2---3-2-0---------------|
5|0---0---0---0-------3-2-3-2-0-2---|

Комментарий автора:

Гитарный вариант.
Оригинал играется на клавишных.
Как на Live aus Berlin.

Lyrics:

Wilder Wein - ich bin bereit
man meldet Ankunft - nur fur den Konig
Gott steh mir bei - und offne deine Tore
Wilder Wein - und ganz langsam
Wilder Wein - so warm und feucht


Wilder Wein - vor deinem Schoss
Wilder Wein - es steht geschrieben
tief im Wasser - kreuzt man nicht
doch meine Lust - verlacht die Flugel
Wilder Wein - wie eine Taube
Wilder Wein - so nass und heiss


Wilder Wein - vor diesem Dunkel
Wilder Wein - von Licht geheilt
es bleibt verborgen - sonst konnten wir uns wehren
ich warte auf dich - am Ende der Nacht
Wilder Wein - nur eine Traube
Wilder Wein - und bitter wie Schnee

Ich warte auf dich - am Ende der Nacht
 
 
Свернуть Распечатать

Видео