Rammstein - Engel, аккорды

Прокрутка
Тональность
Шрифт
100
Вступление: 
(желательно исполнять свистом, не умеете свистеть, берите флейту):
E|-10-----------------------------------|
B|-------10----13----10----12----8----10|
G|--------------------------------------|
D|--------------------------------------|
A|--------------------------------------|
D|--------------------------------------|

Далее вместе со свистом идет бас.

(Свист)
E|-10-----------------------------------|
B|-------10----13----10----12----8------|
G|----------------------------------7---|
D|--------------------------------------|
A|--------------------------------------|
D|--------------------------------------|

(Бас)
x2
|---------------------------------------------------------------|
|---------------------------------------------------------------|
|3-5-----6-5-----3-5---3-5---6-5-3-5-----6-5-----3-5---3-5-8-8-8|
|----0-0-----0-0-----0-----0---------0-0-----0-0-----0----------|

Потом пошла гитара с басом (бас такой же)
x2
|---------------------------------------------------------------|
|---------------------------------------------------------------|
|5-7-----9-7-----5-7---5-7---9-7-5-7-----9-7-----5-7---5-7-x-x-x|
|5-7-----9-7-----5-7---5-7---9-7-5-7-----9-7-----5-7---5-7-x-x-x|
|3-5-----6-5-----3-5---3-5---6-5-3-5-----6-5-----3-5---3-5-x-x-x|
|----0-0-----0-0-----0-----0---------0-0-----0-0-----0----------|

(На куплете играет бас) )

Wer zu Lebzeit gut auf Erden 
wird nach dem Tod ein Engel werden 
den Blick gen Himmel fragst du dann 
warum man sie nicht sehen kann 

Erst wenn die Wolken schlafengehn 
kann man uns am Himmel sehn 
wir haben Angst und sind allein 
Gott weiss ich will kein Engel sein 

Проигрыш:
(Бас)
x2
|---------------------------------------------------------------|
|---------------------------------------------------------------|
|3-5-----6-5-----3-5---3-5---6-5-3-5-----6-5-----3-5---3-5-8-8-8|
|----0-0-----0-0-----0-----0---------0-0-----0-0-----0----------|

(Гитара)
x2
|---------------------------------------------------------------|
|---------------------------------------------------------------|
|5-7-----9-7-----5-7---5-7---9-7-5-7-----9-7-----5-7---5-7-x-x-x|
|5-7-----9-7-----5-7---5-7---9-7-5-7-----9-7-----5-7---5-7-x-x-x|
|3-5-----6-5-----3-5---3-5---6-5-3-5-----6-5-----3-5---3-5-x-x-x|
|----0-0-----0-0-----0-----0---------0-0-----0-0-----0----------|

Sie leben hinterm Sonnenschein 
getrennt von uns unendlich weit 
sie mussen sich an Sterne krallen [ganz fest] 
damit sie nicht vom Himmel fallen 

Erst wenn die Wolken schlafengehn 
kann man uns am Himmel sehn 
wir haben Angst und sind allein 
Gott weiss ich will kein Engel sein 

Соло свистом:
|10---12---15--13--12--10------------------------------10--12--10-
|----------------13--11--10-8-10--10-8-10-------------------------
|-----------------------------------------------------------------
|-----------------------------------------------------------------
|-----------------------------------------------------------------
|-----------------------------------------------------------------

Комментарий автора:

Строй - Drop D: состройте 6-ю струну с 4-ой (6-ю надо опустить).

Перевод:
Кто творил добро на земле 
Станет после смерти ангелом 
Обращаясь глазами к небу ты меня спрашиваешь 
Почему их нельзя увидеть 
Только когда облака уходят ко сну 
Нас можно увидеть на небе 
Нам страшно и мы одиноки 
О Боже, я не хочу быть ангелом
Они живут за горизонтом 
Ужасно далеко и отдельно от нас 
Они должны держаться за звезды (покрепче) 
Чтобы не упасть с небес 
Только когда облака уходят ко сну 
Нас можно увидеть на небе 
Нам страшно и мы одиноки 
О Боже, я не хочу быть ангелом.
 
 
Свернуть Распечатать

Видео