Rammstein - Asche Zu Asche, аккорды

Прокрутка
Тональность
Шрифт
100
Main Riff:
e|---------------------------------|
B|---------------------------------|
G|---------------------------------|
D|---------------------------------|
A|-5-------7-------8-----7---5-----|
E|-3p0-0-0-5-0-0-0-6-0-0-5-0-3-0-0-|
       . .   . . .   . .   .   . .

Clean Breakdown: (actually played on bass as I found out live)
e|----------------------------------|
B|----------------------------------|
G|----------------------------------|
D|-5--------7-------8-----7---5-----|
A|--------7-------7-----------------|
E|---0-0------0-0-----0-0---0---0-0-|

Комментарий автора:

pm. = palm mute
p   = pull-off
 
 
Свернуть Распечатать

Видео