Rammstein - Kuss Mich Fellfrosch, аккорды

Прокрутка
Тональность
Шрифт
100
Kuss Mich (Fellfrosch)
R A M M S T E I N
Tabbed By Aaron Bridgeman (rokken@sicness.net)

http://bogans.arecool.net

TUNING: Drop D (D A D G B e)

KEY:
pm. = palm mute

MAIN RIFF:
e|------------------------|
B|------------------------|
G|------------------------|
D|------------------------|
A|---3---3------3---3---0-|
D|-0-3-0-3--000-3-0-3-0-0-|
   .   .    ...   .   .

PRE-CHORUS:
e|-----------------------------------|
B|-----------------------------------|
G|-----------------------------------|
D|-----------------------------------|
A|-0~~-------2~~-----3~~-----2~~-----|
D|-0~~-------2~~-----3~~-----2~~-----|

Goddamn, that riff is catchy
 
 
Свернуть Распечатать