Rammstein - Seemann, аккорды

Прокрутка
Тональность
Шрифт
100
Main Riff: [0:07]
x1
G|------18---------16---------14---------13----|
D|---14----14---14----14---14----14---14----14-|
A|-0----------0----------0----------0----------|
E|---------------------------------------------|

x1
G|------11--------11---------13--------13-|
D|----9----9----9----9-----9----9----9----|
A|-11--------11--------11---------11------|
E|----------------------------------------|

x1
G|-----14-------13-------11-------9-|
D|---9----9---9----9---9----9---9---|
A|-0--------0--------0--------0-----|
E|----------------------------------|

x1
G|---------------------------------------------|
D|------11---------10---------11---------11----|
A|---11----11---11----11---11----11---11----11-|
E|-9----------9----------9----------9----------|

Outro: [4:27]
x1
G|------18---------16---------14---------13----|
D|---14----14---14----14---14----14---14----14-|
A|-0----------0----------0----------0----------|
E|---------------------------------------------|

x1
G|------11--------11--------13--------13-|
D|----9----9----9----9----9----9----9----|
A|-11--------11--------11--------11------|
E|---------------------------------------|

x1
G|-----14-------13-------11-------9h11p9-|
D|---9----9---9----9---9----9---9--------|
A|-0--------0--------0--------0----------|
E|---------------------------------------|

x1
G|-----------------------------------------------|
D|-------11---------------11------------------11-|
A|---11------11------11----------11-----------11-|
E|-9-------------9----------------------------9--|
 
 
Свернуть Распечатать

Видео