Rammstein - Spiel Mit Mir (btab), аккорды

Прокрутка
Тональность
Шрифт
100
Verse: (x4)(1:02)
|----------------|----------------|
|----------------|----------------|
|----------------|----------------|
|r-000r-0000.000-|r-00r-00r-11r-11|

Pre-Chorus 1: (1:26)
|----------------|----------------|----------------|----------------|
|----------------|----------------|----------------|----------------|
|r-000r-0000.000-|r-000.002-22----|r-000r-0000.000-|r-000.002-r-R---|
|----------------|------------3-33|----------------|----------------|

Verse (x4)

Pre-Chorus 1

Chorus = Outro: (2:15)
|----------------|----------------|----------------|----------------|
|----------------|----------------|----------------|----------------|
|r-222.r---------|r-000.00--------|r-222.r---------|r-000.00--------|
|--------000.000-|--------1-110-00|--------000.000-|--------1-110-00|

|----------------|----------------|----------------|----------------|
|----------------|----------------|----------------|----------------|
|r-222.r---------|r-000.00--------|r-222.r---------|r-000.00--------|
|--------000.000-|--------1-110-00|--------000.000-|--------1---0-r-|

Rest for four measures

Verse x8

Pre-Chorus 2: (3:41)
|---|----------------|----------------|----------------|
|---|----------------|----------------|----------------|
|-R-|R---R---2-------|r-000r-0000.000-|r-000.002-r-R---|
|---|------------3---|----------------|----------------|

Outro x2

Комментарий автора:

(4/4)(78 bpm)
r - eighth rest
. - sixteenth rest
|-R-| - rest for one measure
 
 
Свернуть Распечатать

Видео