Rammstein - Bestrafe Mich, аккорды

Прокрутка
Тональность
Шрифт
100
Intro / Chorus:
e|--------------------------------|
B|--------------------------------|
G|--------------------------------|
D|-4--4--4-5--4-----5--4--------2-|
A|-2--2--2-3--2--22-3--2--------2-|
E|--------------------------------|

e|-----------------------------------------------------------------|
B|-----------------------------------------------------------------|
G|-----------------------------------------------------------------|
D|-----------------------------------------------------------------|
A|-----------------------------------------------------------------|
E|-000-0-0-000-0-0-000-0-0-0-0-0-000-0-0-000-0-0-000-0-0-000000000-|

e|---|-------------------------|
B|---|-------------------------|
G|---|-------------------------|
D|-4-|-2-2-2-2-2-2-----------2-|
A|-5-|-2-2-2-2-2-2-----------2-|
E|-6-|-0-0-0-0-0-0-000000000-0-|

Verse:
e|-------------------|
B|-------------------|
G|-------------------|
D|-------------------|
A|-------------------|
E|-0-0-0-0-0-0-0-...-|

Комментарий автора:

Lyrics:

Bestrafe mich, bestrafe mich
Stroh wird gold und gold wird stein
Deine Größe macht mich klein
Du darfst mein Bestrafer sein
Der Herrgott nimmt
Der Herrgott gibt
Bestrafe mich, bestrafe mich
Du meinst ja und ich denk nein
Schließ mich ein in dein Gebet
Bevor der wind noch kälter weht
Deine Größe macht mich klein
Du darfst mein Bestrafer sein
Du darfst mein Bestrafer sein
Deine Größe macht mich klein
Du darfst mein Bestrafer sein
Du darfst mein Bestrafer sein
Du darfst mein Bestrafer sein
Deine Größe macht ihn klein
Du wirst meine strafe sein
Der Herrgott nimmt
Der Herrgott gibt
Doch gibt er nur dem
Den er auch liebt
Bestrafe mich, bestrafe mich
Bestrafe mich, bestrafe mich
Bestrafe mich, bestrafe mich
Bestrafe mich, bestrafe mich
 
 
Свернуть Распечатать

Видео