Rammstein - Keine Lust, аккорды

Прокрутка
Тональность
Шрифт
100
Intro:

Interlude 1:
|--------------------------------------------
|--------------------------------------------
|--5555555--5555555--5555555--5555555--------		
|--5555555--5555555--5555555--5555555--------
|--3333333--3333333--3333333--3333333--------
|--3333333--3333333--3333333--3333333--9-7^6-

Verse 1:
|--------------------------------------
|--------------------------------------
|--5555555--5555555--5555555--5555555--
|--5555555--5555555--5555555--5555555--
|--3333333--3333333--3333333--3333333--			
|--3333333--3333333--3333333--3333333--

Ich hab’ keine Lust 
Ich hab’ keine Lust 
Ich hab’ keine Lust 
Ich hab’ keine Lust 

Ich habe keine Lust mich nicht zu hassen 
Hab’ keine Lust mich anzufassen
 
Verse 2:

(Gt 1):
|--------------------------------------
|--------------------------------------
|--5555555--5555555--5555555--5555555--
|--5555555--5555555--5555555--5555555--
|--3333333--3333333--3333333--3333333--
|--3333333--3333333--3333333--3333333--

(Gt2):
|------------------------------------------
|------------------------------------------
|---------12^^-----15^^-----12^^-----15^^--
|------------------------------------------
|------------------------------------------
|------------------------------------------

Ich hutte Lust zu onanieren 
Hab’ keine Lust es zu probieren 
Ich hutte Lust mich auszuziehen 
Hab’ keine Lust mich nackt zu sehen 

Chorus:
C5 - D5 - G#5 - G#5 *
Ich hutte Lust mit grosen Tieren 
C5 - D5 - G#5 - G#5 *
Hab’ keine Lust es zu riskieren 
C5 - D5 - G#5 - G#5 *
Hab’ keine Lust vom Schnee zu gehen 
C5 - D5 - G#5 - G#5 *
Hab’ keine Lust zu erfrieren 

Interlude 1:
|--------------------------------------------
|--------------------------------------------
|--5555555--5555555--5555555--5555555--------		
|--5555555--5555555--5555555--5555555--------
|--3333333--3333333--3333333--3333333--------
|--3333333--3333333--3333333--3333333--9-7^6-

Verse 2:
|--------------------------------------
|--------------------------------------
|--5555555--5555555--5555555--5555555--
|--5555555--5555555--5555555--5555555--
|--3333333--3333333--3333333--3333333--			
|--3333333--3333333--3333333--3333333--

Ich hab’ keine Lust  
Ich hab’ keine Lust 
Ich hab’ keine Lust 
Nein ich hab keine Lust 

Ich hab’ keine Lust etwas zu kauen 
Denn ich hab’ keine Lust es zu verdauen 

Verse 3:
|--------------------------------------
|--------------------------------------
|--5555555--5555555--5555555--5555555--
|--5555555--5555555--5555555--5555555--
|--3333333--3333333--3333333--3333333--			
|--3333333--3333333--3333333--3333333--

Hab’ keine Lust mich zu wiegen 
Hab’ keine Lust im Fett zu liegen 

Chorus::
C5 - D5 - G#5 - G#5 *
Ich hutte Lust mit grosen Tieren 
C5 - D5 - G#5 - G#5 *
Hab’ keine Lust es zu riskieren 
C5 - D5 - G#5 - G#5 *
Hab’ keine Lust vom Schnee zu gehen 
C5 - D5 - G#5 - G#5 *
Hab’ keine Lust zu erfrieren 
C5 - D5 - G#5 - G#5 *
Ich bleibe einfach liegen 
C5 - D5 - G#5 - G#5 *
Und wieder zuhle ich die Fliegen 
C5 - D5 - G#5 - G#5 *
Lustlos fasse ich mich an 
C5 - D5 - G#5 - G#5 *
Und merke bald ich bin schon lange kalt 

C5 - D5 - G#5 - G#5 *
So kalt, mir ist kalt 
C5 - D5 - G#5 - G#5 *
So kalt, mir ist kalt 

|--------------------------------------
|--------------------------------------
|--5555555--5555555--5555555--5555555--
|--5555555--5555555--5555555--5555555-- x5
|--3333333--3333333--3333333--3333333--			
|--3333333--3333333--3333333--3333333--

C5 - D5 - G#5 - G#5 *
Mir ist kalt, so kalt 
C5 - D5 - G#5 - G#5 *
Mir ist kalt, so kalt 
C5 - D5 - G#5 - G#5 *
Mir ist kalt, so kalt 
C5 - D5 - G#5 - G#5 *
Mir ist kalt 

Interlude 1:
|--------------------------------------------
|--------------------------------------------
|--5555555--5555555--5555555--5555555--------		
|--5555555--5555555--5555555--5555555--------
|--3333333--3333333--3333333--3333333--------
|--3333333--3333333--3333333--3333333--9-7^6-

Ich hab’ keine Lust 

Комментарий автора:

  C5      D5	   G#5    G#5 *
|------------------------------
|------------------------------
|--5-------7--------10-----4---
|--5-------7--------10-----6---
|--3-------5--------8------6---
|--3-------5--------8------4---
 
 
Свернуть Распечатать

Видео