Rasmus - Funeral Song, аккорды

Прокрутка
Тональность
Шрифт
100
INTRO:
 e|-3---1-3-1-1--------------3---| 
 B|---4---------4-3-4--4-3-1-----| 
 G|------------------------------| 
 D|------------------------------| 
 A|------------------------------| 
 E|------------------------------| 
 
 e|--------3-| 
 B|--4-3-1---| 
 G|----------| 
 D|----------| 
 
Ab5 G5 
I dumped you again 
Db5 C5 
I don't understand 
Ab5 G5 
It's happened before 
Db5 C5 
Can't take it no more 
 
Ab5 D5 
These foolish games 
Db5 C5 
Always end up in confusion 
Ab5 D5 
I'll take you back 
G5 
Just to leave you once again 
 
C5 Ab5 
I died in my dreams 
Eb5 
What's that supposed to mean? 
Bb5 
Got lost in the fire 
C5 Ab5 
I died in my dreams 
Eb5 
Reaching out for your hand 
Bb5 
My fatal desire 
 
I've failed you again 
Cause I let you stay 
I used to pretend 
That I felt okay 
 
Just one big lie 
Such a perfect illusion 
I made you mine 
Just to hurt you once again
 
 

Видео