Rasmus - Last Waltz, аккорды

Прокрутка
Тональность
Шрифт
100
Intro: 
     Bm                C#       F#7             Bm7
E|-----10-9-10-----------9-8-9----9-8-9-----------7-6-7-|
B|---7----------8-7-------------------------------------|
G|------------------10-9--------9--------10-9-8-7-------|
D|------------------------------------------------------|
A|------------------------------------------------------|
E|------------------------------------------------------|x2

Verse 1:
Bm              C#
Make me blind, cover my eyes
        F#
You can do what you want
     Bm               C#
I'm paralyzed by the perfect mood
                          F#
When we're dancing with blindfolds on
Bm                   C#
You make it easy to love you and hate you
F#                    Bm
I can't explain it, i feel insecure
                          C#
You say it's simple: "You die just to live again"
F#                              Bm        B7
You say, we're waiting for the last waltz

Chorus:
B7              Em
Another you and me
F#           Bm       Bm7         Em
Another revolutionary heavenly romance
F#               Bm        
Waiting for the last waltz
B7         Em
And so it seems
    F#               Bm     
We won't find the solution
 Bm7                C#7
Confusion leads the dance,
                       F#
We're waiting for the last waltz

Interlude = Intro:
     Bm                C#       F#7             Bm7
E|-----10-9-10-----------9-8-9----9-8-9-----------7-6-7-|
B|---7----------8-7-------------------------------------|
G|------------------10-9--------9--------10-9-8-7-------|
D|------------------------------------------------------|
A|------------------------------------------------------|
E|------------------------------------------------------|

Verse 2:
Bm                C#
Praise the wine, so divine
         F#
And it stings like a rose
Bm                   C#
Allow the night to flow inside
F#                 F#7
Open the window and let the wind blow
Bm                            C#
Highlight of the night is the unhappy ending
F#                   Bm
You keep refusing to answer my calls
                      C#
Drop the bending and stop the pretending
F#                           Bm         B7
You say: "Get ready for the last waltz"

Chorus:
B7              Em
Another you and me
F#           Bm       Bm7         Em
Another revolutionary heavenly romance
F#               Bm        
Waiting for the last waltz
B7         Em
And so it seems
    F#               Bm     
We won't find the solution
 Bm7                C#7
Confusion leads the dance,
                       F#
We're waiting for the last waltz

                 Em            F#           Bm
I believe that no one in this world has the answer for me
                       Em         F# Bm B7
But still i hope that someone has heard

B7 Em        *(chords like in chorus)
F# Bm Bm7 Em
F# Bm
B7 Em
F# Bm
Bm7 C#7
C#7 F# 

Chorus:
        B7      Em
Another you and me
F#           Bm       Bm7         Em
Another revolutionary heavenly romance
F#               Bm        
Waiting for the last waltz
B7         Em
And so it seems
    F#               Bm     
We won't find the solution
 Bm7                C#7
Confusion leads the dance,
                       F#
We're waiting for the last waltz

Outro = Intro:
     Bm                C#       F#7             Bm7
E|-----10-9-10-----------9-8-9----9-8-9-----------7-6-7-|
B|---7----------8-7-------------------------------------|
G|------------------10-9--------9--------10-9-8-7-------|
D|------------------------------------------------------|
A|------------------------------------------------------|
E|------------------------------------------------------| x6

Комментарий автора:

Intro like in the original. I like to play it with chords too: Bm C# F#7 Bm7 ;)
 
 
Свернуть Распечатать

Видео