Rasmus - Guilty, аккорды

Прокрутка
Тональность
Шрифт
100
Piano Intro:
E|------------------------------||
B|---------2------2--4--6-------||
G|------------3-----------------||
D|-1--4--3----------------------||
A|------------------------------||
E|------------------------------||

Guitar Intro:
E|-----------------------------------||
B|-----------------------------------||
G|---8-----4-----6-----3-----4-----6-||
D|---8-----4-----6-----3-----4-----6-||
A|---6-----2-----4-----1-----2-----4-||
E|-----------------------------------||

Verse 1: (alternate between riffs)
Riff 1:
E|--6---------6---------4------------------------||
B|----7---------7---------6--------6h7p6--4------||
G|------8--8------8--8------6--6------------6--6-||
D|-----------------------------------------------||
A|-----------------------------------------------||
E|-----------------------------------------------||

Riff 2:
E|--6---------6---------4-------------------||
B|----7---------7---------6-----------------||
G|------8--8------8--8------6--6-----3----4-||
D|-----------------------------------3----4-||
A|-----------------------------------1----2-||
E|------------------------------------------||

Pre-Chorus:
E|----------||
B|----------||
G|--3----4--||
D|--3----4--|| x3
A|--1----2--||
E|----------||

Chorus: Same as Intro
E|-----------------------------------||
B|-----------------------------------||
G|---8-----4-----6-----3-----4-----6-||
D|---8-----4-----6-----3-----4-----6-||
A|---6-----2-----4-----1-----2-----4-||
E|-----------------------------------||

Bridge:
E|-----------------------------||
B|-----------------------------||
G|--4----6----3----3----4----6-||
D|--4----6----4----3----4----6-||
A|--2----4----4----1----2----4-||
E|------------2----------------||

E|----------------------------------------------------------||
B|----------------------------9--11--9----------------------||
G|----------------8--10--11-------------11--10--8-----------||
D|------8--9--11-----------------------------------11--9--8-||
A|--11------------------------------------------------------||
E|----------------------------------------------------------||

Комментарий автора:

Song Structure:
Piano Intro
Guitar Intro
Verse 1
Verse 2
Pre Chorus
Chorus
Verse 3 
Verse 4
Pre Chorus 
Chorus
Bridge
Chorus
Outro
 
 

Видео