Rasmus - In The Shadows (intro), аккорды

Прокрутка
Тональность
Шрифт
100
Intro:
E---------------------------------------------------------------------
B---------------------------------------------------------------------
G---------------------------------------------------------------------
D--7--7-----7----6--------------------------4--6-----7-----6----------
A--5--5--5----5--4--7--4--4--4--4-----4--7--2--4--5-----5--4--7--4--6-
E-------------------5--2--2--2--2--0--2--5--------------------5--2--4-

E----------------
B----------------
G----------------
D----------------
A-----7-----4----
E--5-----5-----5-
 
 

Видео