Rasmus - In The Shadows, аккорды

Прокрутка
Тональность
Шрифт
100
Intro 1:
E|---------------------------------------------------------|
B|---------------------------------------------------------|
G|---------------------------------------------------------|
D|--------------------------------------7------------------|
A|-5-5-5-7-5-4-0--------4-------0-2-4-5----5-4-0---------0-|
E|----------------2-2-2---0-2--------------------2-2-4-4---|

Intro 2:
E|------------------------------------------------------------------|
B|-----------------------------------------------play this twice----|
G|------------------------------------------------------------------|
D|---------------------------------------7--------------------------|
A|-5-5-5-5-5-4-0-----------------0-2-4-5---5-4-0----------0-7-0-4-0-|
E|------------------2-2-2-2-0-2---------------------2-4-------------|

Chorus 1:
E|-----------------------------------------------------------------|
B|-----------------------------------------------------------------|
G|-----------------------------------------------------------------| x2
D|-----------------------------------------------------------------|
A|-5-5-5-5-5-5-5-5-5-5-5-5-5-5-5-5-4-4-4-4-4-4-4-4-4-4-4-4-4-4-4-4-|
E|-----------------------------------------------------------------|
                                                                   
E|--------|
B|--------|
G|--------|
D|-4-3-2--| 
A|-4-3-2--|
E|-2-1----|

Chorus 2:
E|-----------------------------------|
B|-----------------------------------|
G|-7-7-----------------4-4-----------| x16
D|-7-7-8x---4-4--------4-4-8x----4-4-|
A|-5-5------4-4-8x-----2-2-------4-4-|
E|---------2-2------------------2-2--|

E|------------|
B|------------|
G|------------|
D|-4-4-6-6-7--|   
A|-4-4-6-6-7--|
E|-2-2-4-4-5--|

Order of playing the song:
Intro 1			
Intro2			
Chorus 1			
Chorus 2			
Intro 2			
Chorus 1		
Chorus 2
Chorus 1
Chorus 2

Outro:
E|-------------
B|-------------
G|-------------
D|-------------
A|-----------0-
E|-2-2-4-4-----
 
 

Видео