Rasmus - In The Shadows, аккорды

Прокрутка
Тональность
Шрифт
100
Intro:
g|-----------------------------------------------------|
d|-----------------------------------------------------|
a|-5-5-5-7-5-4------------------2-4-55-4---------------| x2
E|-------------5--2-2-2-2-0-2-5----------5--2--4--5--7-|

Verse:
g|---------------------------------|
d|---------------------------------|repeat until
a|-5-5-5-5---------2-2-2-2---------|end of verse
E|---------2-2-2-2---------2-2-2-2-|

Pre-Chours:
g|----------|
d|----------|
a|----------|
E|--2--1--0-|

Chours:
g|---------------------------------------------------|
d|---------------------------------------------------|x2
a|-5555555555555-----------2222222222222-------------|
E|-------------222222222222------------2222222222222-|

Interlude:
g|----9---9---9---9-|
d|--7---7---7---7---|
a|------------------|
E|------------------|

Комментарий автора:

Intro x2
Verse
Pre-chours
Chorus
Intro x2
Verse
Pre-chours
Chorus
Interlude
Pre-chours
Chorus
Intro
 
 

Видео