Rasmus - In The Shadows (btab), аккорды

Прокрутка
Тональность
Шрифт
100
Intro:
G|------------------------------------------------------------------|
D|-0--0--0-2-0----------------------------7-------------------------|
A|------------4-0----------------0-2--4--5-5-4-0--------------------|
E|----------------2--2--2-1p0--2------------------2-2-4-4-5-5-------|

G|------------------------------------------------------------------|
D|-0--0--0-2-0----------------------------7-------------------------|
A|------------4-0----------------0-2--4--5-5-4-0-----------7-5-4-0--|
E|----------------2--2--2-1p0--2------------------2--4--5-----------|

G|------------------------------------------------------------------|
D|-0--0--0-2-0----------------------------7-------------------------|
A|------------4-0----------------0-2--4--5-5-4-0--------------------|
E|----------------2--2--2-1p0--2------------------2--2--2-0-1-2-----|

Verse 1:
G|------------------------------------------------|
D|------------------------------------------------|
A|-2--2--2--2------------2--2--2--2---------------|
E|------------2--2--2--2------------2--2--2--2----|

G|------------------------------------------------|
D|------------------------------------------------|
A|-2--2--2--2------------2--2--2--2---------4-4-4-|
E|------------2--2--2--2------------2--2--2-------|

G|------------------------------------------------|
D|-0--0--0--0-------------------------------------|
A|-----------------------2--2--2--2---------------|
E|------------2--2--2--2------------2--2--2--2----|

G|-----------------------------------|------------|
D|-0--0--0--0------------------------|------------|
A|-----------------------2--2--2--2--|------------|
E|------------2--2--2--2-------------|--2--1--0---|

Chorus:
G|---------------------------------|--------------------------------|
D|-0-0-0-0-------------------------|-0-0-0-0-----------------0------|
E|-----------------2-2-2-2---------|-----------------2-2-2-2---4-0--|
A|---------2-2-2-2---------2-2-2-2-|---------2-2-2-2--------------2-|

Intro-Like:
G|------------------------------------------------------------------|
D|-0--0--0-2-0----------------------------7-------------------------|
A|------------4-0----------------0-2--4--5-5-4-0----------7-5-4-0---|
E|----------------2--2--2-1p0--2------------------2--4--5-----------|

G|------------------------------------------------------------------|
D|-0--0--0-2-0----------------------------7-------------------------|
A|------------4-0----------------0-2--4--5-5-4-0--------------------|
E|----------------2--2--2-1p0--2------------------2-2-4-4-5/0-------|

Verse 2:
G|---------------------2-1-2---------------------2-1-2-|
D|-----------------------------------------------------|
A|-2--2--2--2----------------2--2--2--2----------------|
E|-------------2--2--2-------------------2--2--2-------|

G|---------------------2-1-2---------------------------| 
D|-----------------------------------------------------|
A|-2--2--2--2----------------2--2--2--2----------4-4-4-|
E|-------------2--2--2-------------------2--2--2-------|

G|---------------------2-1-2---------------------2-1-2-|
D|-0--0--0--0------------------------------------------|
A|---------------------------2--2--2--2----------------|
E|-------------2--2--2-------------------2--2--2-------|

G|---------------------2-1-2-------------|-------------|
D|-0--0--0--0----------------------------|-------------|
A|---------------------------2--2--2--2--|-------------|
E|-------------2--2--2-------------------|--2--1--0----|

Chorus [Same as Chorus 1]

Bridge:
G|------1h2p1-------------------------1h2p1-|
D|----------------4h6p4-----4h6p4-----------|
A|-2-2-2-----2-2-2--------------------------|
E|---------------------2-2-2-----2-2-2------|

G|------1h2p1-------------------------------|
D|----------------4h6p4-----4h6p4-----------|
A|-2-2-2-----2-2-2--------------------------|
E|---------------------2-2-2-------2--1--0--|

Chorus 2:
G|---------------------------------|---------------------------------|
D|-0-0-0-0-------------------------|-0-0-0-0-------------------------|
E|-----------------2-2-2-2---------|-----------------2-2-2-2-----0-2-|
A|---------2-2-2-2---------2-2-2-2-|---------2-2-2-2---------2-4-----|

G|---------------------------------|---------------------------------|
D|-0-0-0-0-------------------------|-0-0-0-0-------------------------|
E|-----------------2-2-2-2---------|-----------------2-2-2-2---------|
A|---------2-2-2-2---------2-2-2-2-|---------2-2-2-2---------2~------|

Coda:
G|------------------------------------------------------------------|
D|-0--0--0-2-0----------------------------7-------------------------|
A|------------4-0----------------0-2--4--5-5-4-0-----------7-5-4-0--|
E|----------------2--2--2-1p0--2------------------2--4--5-----------|

G|------------------------------------------------------------------|
D|-0--0--0-2-0----------------------------7-------------------------|
A|------------4-0----------------0-2--4--5-5-4-0--------------------|
E|----------------2--2--2-1p0--2------------------2--2--2-0-1-2-----|
 
 

Видео