Разбітае Сэрца Пацана - Серый квадрат, аккорды

Прокрутка
Тональность
Шрифт
100
Am                F
Серэньки квадратик роуным слоем лёг
С                  Dm
на сегодня хватит, сделау всё что мог
Am              F
ну а что старацца, нету толку ведь
С                    Dm        
Заутра новай краскай мне апять всё гэта занава тирэть

 

припев:
Am               F            
В серам квадрате спрачу слава 
   C               Dm
те что не бирот ни краска ни лак
Am            F
Эти два слова злая крамола
С                Dm        
и на канцэ васклицательны знак

проигрыш на первой и второй струне:
1)-5-555-5-3-1------------
2)------------5-555-5-3-1-
3)--------------------------
4)--------------------------
5)--------------------------
6)--------------------------



Am            F
Я супрэматизм з децства уважау
C                  Dm  
множылись квадраты и вот день настау
Am                 F
Серэньки квадратик на меня упау
C                  Dm
Всё адьёз прыплыли и паследнее что в жызни прачытау


припев:
Am               F            
В серам квадрате спрачу слава 
   C               Dm
те что не бирот ни краска ни лак
Am            F
Эти два слова злая крамола
С                Dm        
и на канцэ васклицательны знак



проигрыш на первой и второй струне:
1)-5-555-5-3-1------------
2)------------5-555-5-3-1-
3)--------------------------
4)--------------------------
5)--------------------------
6)--------------------------


припев:
Am               F            
В серам квадрате спрачу слава 
   C               Dm
те что не бирот ни краска ни лак
Am       F
Жэ-ы-вэ-е-бэ-е-эл-а-р-у
С                Dm        
эс мягки и васклицательны знак

повтор припева:
Am               F            
В серам квадрате спрачу слава 
   C               Dm
те что не бирот ни краска ни лак
Am       F
Жэ-ы-вэ-е-бэ-е-эл-а-эр-у
С                Dm        
эс мягки и васклицательны знак


проигрыш на первой и второй струне:
1)-5-555-5-3-1------------
2)------------5-555-5-3-1-
3)--------------------------
4)--------------------------
5)--------------------------5-555-5-3-1-
6)--------------------------------------5-555-5-3- 

Комментарий автора:

Это первая моя подборка, не судите строго 
 
 
Свернуть Распечатать

Аппликатуры аккордов

Аккорд AmАккорд FАккорд DmАккорд C
OlegYakimenkoOlegYakimenko
автор подбора аккордов
342 0 29.10.2021

Видео