Разные песни - Гори, гори, моя звезда, аккорды

Прокрутка
Тональность
Шрифт
100
Вступление (проигрыш):
1----8---8---7---------------------------3---1---1---0---0-------
2----5---5-------3---3-------3-------0-----0---0-----1-------1---
3--5---5---5---5---2---2---2---2---2---2-----------2---2---2---2-
4------0-------3-------0-------------------------------
5------------------------------------------------------
6-0-----------------------------------------------0---------------

1-----1---0-------0-------------------0---2---4---5---------------
2---2---------2-----------0-----------0---0---3---5---5---1-------
3-------2---2---2-------1---1---------1---2---4---5-5---5---2-2---
4----------2-------2---------2---1---0---------------2-
5-0-----------------2-----------2---2-------------0---------------
6------0---------------0-------------------------------

Романс я играю таким перебором: бас[-3-2-3-1-3-2-3]
1----------------
2---------------
3-------------
4------
5----------------
6------

Возможен и такой вариант перебра: бас[-3-2-3-1-2-3-1]
1---------------
2---------------
3--------------
4------
5----------------
6------

в скобках указаны не обязательные, я их добавил для
большей красоты мелодии и это не предел, 
так что дерзайте свои варианты.

Am      E7    Am
(1)Гори, гори, моя звезда,
 (C)   G7     C
Звезда любви приветная!
Am7    Dm       Am
Ты у меня одна заветная,
        E7     F
Другой не будет никогда!
      Dm       Am
Ты у меня одна заветная,
        E7     Am
Другой не будет никогда!

(2)Звезда любви волшебная,
Звезда прошедших лучших дней!
Ты будешь вечно незабвенная  2
В душе измученной моей!   /раза

(3)Твоих лучей небесной силою
Вся жизнь моя озарена;
Умру ли я, ты над могилою  2
Гори, сияй, моя звезда.  /раза
 
 
Свернуть Распечатать

Видео