Разные песни - Цыганочка, аккорды

Прокрутка
Тональность
Шрифт
100
Bm	    Em	     Bm 	 
Андро вэрдан грундос нанэ,	 
Em	  A7	  D 
Ман пирамни шукар нанэ... 
Em	  Bm		 
Лоли пхабай прэчинава		 
	F# 
Хоп-хоп-хоп!		 
Епаш тукэ, епаш мангэ 		 
	Bm 
Хоп-хоп-хоп! 
 
Припев: 
Bm	     G		 
Та-ра-ра-рай, ра-ра-ра-рай,	 
	F# 
Хоп-хоп-хоп!			 
Епаш тукэ, епаш мангэ 		 
	Bm 
Хоп-хоп-хоп! 
 
E||--------5-7-5-|------0-1-0--|-----7-8-7-|-----8-7-5-0--------|| 
B||------6-------|----1--------|----9------|--------------1-----|| 
G||----7---------|---2---------|---9-------|----------------0---|| 
D||--0-----------|-------------|-----------|------------------2-|| 
A||--------------|-0-----------|-----------|-0------------------|| 
E||--------------|-------------|-0---------|--------------------||
 
E||--------5-7-5-|-------0-1-0-|-----7-8-7-|--5----|| 
B||------6-------|-----1-------|----9------|--5----|| 
G||----7---------|---2---------|---9-------|--5----|| 
D||--0-----------|-------------|-----------|-------|| 
A||--------------|-0-----------|-----------|--0----|| 
E||--------------|-------------|-0---------|-------|| 
 
E||--3-1-3-1-1-0-1-0-+-0---0-----------+------------|| 
B||------------------+---3---3-3-1-3-1-+-1--0--1--0-|| 
G||------------------+-----------------+------------|| 
 
E||--------------+------------+----------|| 
B||---0-----0----+------------+----------|| 
G||------2-----2-+-2--1-----1-+--2--2----|| 
D||--------------+-------4---------------|| 
 
E||--3-1-3-1-1-0-1-0-+-0--0---------0+-3-1-3-1-1-0-1-0-|| 
B||------------------+---3--3-3-1-3--+-----------------|| 
G||------------------+---------------+-----------------|| 
 
E||-0-0-2-4-5-5-+-12-10-12-10-10-8-10-8-+8-7-8-7-7-5-7-5-|| 
B||-------------+-----------------------+----------------|| 
G||-------------+-----------------------+----------------|| 
 
E||-----------------+--------4-5-4-3-2--|| 
B||-8-6-8-6-6-5-6-5-+--5-5-7------------|| 
G||-----------------+-------------------|| 
         Dm                   Am                E     Am 
E||--------1-3-1--+-------0-1-0--+-------0-----+----0-0--|| 
B||------3--------+-----1--------+-----0----1-0+----1-1--|| 
G||----2----------+----2---------+---1---------+----2-2--|| 
D||--0------------+--------------+-------------+---------|| 
A||---------------+-0------------+-2-----------+---------|| 
E||---------------+--------------+-------------+-0-------|| 
 
Две гитары за стеной		 
Жалобно заныли.			 
С детства памятный мотив:	 
Милый друг, не ты ли... 
 
Припев: 
Эх, раз! Еще раз! 
Еще много, много раз! 
 
Поговори хоть ты со мной	 
Подруга шести струнная.		 
Вся душа полна тобой,		 
А ночь такая лунная... 
 
Припев: 
Перебор и сердце вновь,		 
Стонет, замирает.		 
Закипает в жилах кровь,		 
Голова пылает... 
 
Припев: 
В чистом поле васельки,		 
Дальняя дорога.			 
Сердце ноет от тоски,		 
А в глазах тревога...   
 
Припев: 
Что же ноешь, ты мое		 
Ретиво сердечко?		 
Я увидел у нее			 
На руке колечко. 
 
Припев:  
Эх, жизнь, моя жизнь,		 
Сердце к сердцу прижмись.	 
На тебе греха не будет,		 
А меня пусть люди судят,	 
 
Припев: 
Эх, раз! Еще раз! 
Еще много, много раз! 
лучше 40 раз по разу, 				 
чем ни разу 40 раз!
 
 

Видео