Разные песни - Моя Осень, аккорды

Прокрутка
Тональность
Шрифт
100
Intro:  G Cadd9 A7sus4 G }x2
 
|--------3--3-3--------3--3-3--------3--3-3--------3--3-3-| 
|--------3--3-3--------3--3-3--------3--3-3--------3--3-3-| 
|--------0--0-0--------0--0-0--------0--0-0--------0--0-0-| 
|---------------------------------------------------------| 
|--------------------3---------3-2-0--------3-2-----------| 
|-0-2-3----------2-3-----------------------------3--------| 
 
|--------3--3-3--------3--3-3--------3--3-3--------3--3-3-| 
|--------3--3-3--------3--3-3--------3--3-3--------3--3-3-| 
|--------0--0-0--------0--0-0--------0--0-0--------0--0-0-| 
|---------------------------------------------------------| 
|--------------------3---------3-2-0----------------------| 
|-0-2-3----------0-2-------------------------3-2-3--------| 
 
 
    G
багряным листом пролетая над городом 
      Cadd9
провожаю последние теплые дни 
         Am7
на серых улицах в ожидании холода 
      G
бесконечных пробок застыли огни 
 
а за городом осень туманом стелется 
красит сотнями красок листвы океан 
вряд ли кто описать словами осмелится 
и я  в этом плену одурманен и пьян 
 
        Em7                              Am7
        осень, ты - моя тюрьма и моя свобода 
        Cmaj7                            G
        осень, ты - мое тепло и мои холода 
            Em7                              Am7 
        ты мой горячий чай, ты красавица природа 
         Cmaj7             G
        ты мой покой и моя суета 
  
        осень - ты моя тюрьма и моя свобода 
        осень - ты мое тепло и мои холода 
        ты мой горячий чай, ты красавица природа 
        ты мой покой и моя суета 
 
 G Cadd9 A7sus4 G }x2
 
никого рядом, лишь небо и ветер 
но сердце полно теплого света 
и не хочется больше грустить о лете 
ведь во мне и так вечное лето 
 
скоро придут дожди и снега 
люди будут кутаться от холода 
а я уйду искать свои берега 
осенним листом улечу из города 
 
        осень - ты моя тюрьма и моя свобода 
        осень - ты мое тепло и мои холода 
        ты мой горячий чай, ты красавица природа 
        ты мой покой и моя суета 
 
        осень - ты моя тюрьма и моя свобода 
        осень - ты мое тепло и мои холода 
        ты мой горячий чай, ты красавица природа 
        ты мой покой и моя суета 
 
Dm7 Am7 Dm7 Am7 Dm7 Am7 Bbmaj7 E7sus4

   Dm7
и лишь одна печаль со мной навсегда 
         Am7
та, что держит тисками на самом дне 
    Dm7
разбитая мечта как ледяная вода 
      Am7
настигает волной в ночной тишине 
      Dm7
мою осеннюю грусть не стирают года 
 Am7
    ты никогда не вернешься ко мне 
 Bbmaj7
    я - ничья звезда 
                 E7sus4
    ни в чьем окне 
 
и лишь одна печаль со мной навсегда 
та, что держит тисками на самом дне 
разбитая мечта как ледяная вода 
настигает волной в ночной тишине 
мою осеннюю грусть не стирают года 
ты никогда не вернешься ко мне 
я - ничья звезда 
ни в чьем окне 
 
        осень - ты моя тюрьма и моя свобода 
        осень - ты мое тепло и мои холода 
        ты мой горячий чай, ты красавица природа 
        ты мой покой и моя суета 
 
        осень - ты моя тюрьма и моя свобода 
        осень - ты мое тепло и мои холода 
        ты мой горячий чай, ты красавица природа 
        ты мой покой и моя суета 
 
Outro: G Cadd9 A7sus4 G }x2