Разные песни - Metro2033 Last Light, аккорды

Прокрутка
Тональность
Шрифт
100
1-0-------5----3----2-------3----------------------------0-------- 
2----------3----2----0--------0---------2-------0----------------- 
3---2-----4----2----1------------------4------4--5-4-5---4-5-2----
4-----------------------------4--5-4-5---------------------------- 
5----------------------------------------------------------------- 
6----------------------------------------------------------------- 
 
1-0-------5----3----2----0-------5-------3--------2--------------- 
2----------3----2----0-------------------------------------------- 
3---2-----4----2----1----2-----7-5-4---5-4-2----4-1--------------- 
4----------------------------------------------------------------- 
5----------------------------------------------------------------- 
6----------------------------------------------------------------- 
 
1-0-------5----3----2-------3----------------------------0----------0-----5----3----2-----0 
2----------3----2----0--------0---------2-------0--------------------------3----2----0----2 
3---2-----4----2----1------------------4------4--5-4-5---4-5-2-----2---4----2----1--2------
4-----------------------------4--5-4-5----------------------------------------------------- 
5------------------------------------------------------------------------------------------ 
6------------------------------------------------------------------------------------------ 
 
 

Видео