Разные песни - Про Чебурашку, аккорды

Прокрутка
Тональность
Шрифт
100
 Am                 E
 Я был когда-то странной
3|---------2----|
2|-------1---1-0|
1|-0-1-0--------|

             Am
  Игрушкой безымянной
2|-3---3-0-3----|
1|---0-------1-0|

      C          G
  К которой в магазине 
2|---------1---3|
1|-3-5-3-0---0--|

                 С
  Никто не подойдет
2|-3---3--------|
1|---0----0--1-3|

    A7        Dm
  Теперь я Чебурашка
2|-3------------|
1|-0-5-5-0-3-1--|

    G        C
  И каждая дворняжка
2|-3-----3------|
1|---3-3---1-0-0|

      Dm       Am
  При встрече, сразу
2|-----3---1----|
1|-3-1---0------|

    E    Am
  Лапу подает
3|-2------------|
2|----3--0--1---|
1|-0------------|
 
 
Свернуть Распечатать

Видео